Log in

One click and you are in

Login with Facebook Login with Google

Why sign up and log in

Guitar Tabs Explorer
The Bluebells bass tabs for Young at heart

Bass tabs

  • Tuning: Standard tuning
  • Difficulty: Beginner
-------------------------------------------------------------------
           Artist - The Bluebells
          ************************
           Song - Young At Heart
          ***********************
          Album - Sisters (1984)
          *************************
           Tabbed By - Ayreon77
          **********************
-------------------------------------------------------------------

Tuning = Standard

00:22

INTRO
******
G|---------------------|
D|-5-------------------|
A|---7---7---7-----4-7-|
E|-----7---7---5-7-----|


--------------------------------
00:26

VERSE 1
********
G|-------------------|-------------------|-------------------|---------------------|
D|---7---7---7---7-4-|-------------------|---7---7---7---7-4-|-------------------4-|
A|-5---5---5---5-----|-7---7---7-----4-7-|-5---5---5---5-----|-7---7---7-----4-7---|
E|-------------------|---7---7---5-7-----|-------------------|---7---7---5-7-------|

--------------------------------
00:43

PRE CHORUS
***********
G|---------|-----------|-----------|---------------|
D|---7---7-|---4---4---|-------5-7-|-----------7-9-|
A|-5---5---|-2---2---2-|---5-7-----|---7--9-10-----|
E|---------|-----------|-3---------|-5-------------|


--------------------------------
00:51

CHORUS
*******
G|-----------|-----------|--------------|--------------|
D|---7---7-4-|---4---4---|----------5---|----------7---|
A|-5---5-----|-2---2---2-|---5--5-7---7-|---7--7-9---9-|
E|-----------|-----------|-3------------|-5------------|


--------------------------------
01:00
VIOLIN BREAK
*************
G|-------------------|---------------------|
D|---7---7---7---7-4-|-------------------4-|
A|-5---5---5---5-----|-7---7---7-----4-7---|
E|-------------------|---7---7---5-7-------|


--------------------------------
01:08

VERSE 2
********
G|-----------------|---------------------|-------------------|---------------------|
D|---7---7---7---7-|-------------------4-|---7---7---7---7-4-|-------------------4-|
A|-5---5---5---5---|-7---7---7-----4-7---|-5---5---5---5-----|-7---7---7-----4-7---|
E|-----------------|---7---7---5-7-------|-------------------|---7---7---5-7-------|


--------------------------------
01:25

PRE CHORUS
***********
G|---------|-----------|--------------|--------------|
D|---7---7-|---4---4---|----------5---|----------7---|
A|-5---5---|-2---2---2-|---5--5-7---7-|---7--7-9---9-|
E|---------|-----------|-3------------|-5------------|


G|-----------|-----------|--------------|--------------|
D|---7---7-4-|---4---4---|----------5---|----------7---|
A|-5---5-----|-2---2---2-|---5--5-7---7-|---7--7-9---9-|
E|-----------|-----------|-3------------|-5------------|


--------------------------------
01:41

CHORUS
*******
G|-----------|-----------|--------------|--------------|
D|---7---7-4-|---4---4---|----------5---|----------7---|
A|-5---5-----|-2---2---2-|---5--5-7---7-|---7--7-9---9-|
E|-----------|-----------|-3------------|-5------------|X2


--------------------------------
01:58
VIOLIN SOLO
************
G|-------------------|-------------------|-------------------|---------------------|
D|---7---7---7---7-4-|-------------------|---7---7---7---7-4-|-------------------4-|
A|-5---5---5---5-----|-7---7---7-----4-7-|-5---5---5---5-----|-7---7---7-----4-7---|
E|-------------------|---7---7---5-7-----|-------------------|---7---7---5-7-------|


--------------------------------
02:15

PRE CHORUS
***********
G|-----------|-----------|--------------|--------------|
D|---7---7-4-|---4---4---|----------5---|----------7---|
A|-5---5-----|-2---2---2-|---5--5-7---7-|---7--7-9---9-|
E|-----------|-----------|-3------------|-5------------|X4


--------------------------------
02:48

CHORUS
*******
G|-----------|-----------|--------------|--------------|
D|---7---7-4-|---4---4---|----------5---|----------7---|Fade out
A|-5---5-----|-2---2---2-|---5--5-7---7-|---7--7-9---9-| on the 4th
E|-----------|-----------|-3------------|-5------------|X4   One.


ENJOY.............
ⓘ Bass guitar tab for 'Young At Heart' by The Bluebells, a pop band formed in 1982

Almost there ...

Sign in to get your own page with links to favourite songs and more. You are just one click away...

Login with Facebook Login with Google