Log in

One click and you are in

Login with Facebook Login with Google

Why sign up and log in

Guitar Tabs Explorer
Blu Detiger bass tabs for Vintage

Bass tabs

Tuning: Standard (E A D G)

Bass


Intro:

G|------------|
D|------------|
A|-6-/8\-6--4-|
E|------------|
G|------------|------------|-----------|--------------|
D|-----8/10\8-|-6----------|-------4---|--6-----------|
A|------------|---6---6/8-6|-----------|------6/8\6-4-|
E|-6-6--------|-----4------|2-2--2---2-|4---4---------|

G|------------|------------|-----------|--------------|
D|-----8/10\8-|-6----------|-------4---|--6-----------|
A|------------|---6---6/8-6|-----------|------6/8\6-4-|
E|-6-6--------|-----4------|2-2--2---2-|4---4---------|


Verse:

G|------------|------------|-----------|--------------|
D|------------|------------|-----------|--------------|
A|------------|-------6/8-6|-6-------6-|--------------|
E|-6------6---|-4----------|-----------|-2-------2--2-|

G|------------|------------|-----------|--------------|
D|------------|------------|-----------|--------------|
A|------------|-------6/8-6|-6-------6-|--------------|
E|-6------6---|-4----------|-----------|-2-------2--2-|

G|----------------|---------|
D|----------------|---------|
A|----------------|-6/8\6--4|
E|-6---6-6--6--6-6|---------|


G|------------|------------|-----------|--------------|
D|-----8/10\8-|-6----------|-------4---|--6-----------|
A|------------|---6---6/8-6|-----------|------6/8\6-4-|
E|-6-6--------|-----4------|2-2--2---2-|4---4---------|

G|------------|------------|-----------|--------------|
D|-----8/10\8-|-6----------|-------4---|--6-----------|
A|------------|---6---6/8-6|-----------|------6/8\6-4-|
E|-6-6--------|-----4------|2-2--2---2-|4---4---------|


Verse:

G|------------|------------|-----------|--------------|
D|------------|------------|-----------|--------------|
A|------------|----6/8\6--4|-6-------6-|--------------|
E|------------|------------|-----------|--2-------2-2-|

G|------------|------------|-----------|--------------|
D|------------|------------|-----------|--------------|
A|------------|----6/8-6---|-------6---|--------------|
E|--6-------6-|--4---------|-----------|--2-------2-2-|

G|------------|------------|
D|------------|------------|
A|------------|----6/8\6--4|
E|------------|------------|


G|------------|------------|-----------|--------------|
D|-----8/10\8-|-6----------|-------4---|--6-----------|
A|------------|---6---6/8-6|-----------|------6/8\6-4-|
E|-6-6--------|-----4------|2-2--2---2-|4---4---------|

G|------------|------------|-----------|--------------|
D|-----8/10\8-|-6----------|-------4---|--6-----------|
A|------------|---6---6/8-6|-----------|------6/8\6-4-|
E|-6-6--------|-----4------|2-2--2---2-|4---4---------|


Bridge:

G|------------|------------|-----------|--------------|
D|------------|------------|-----------|--------------|
A|------------|------------|-----------|--------------|
E|------------|------------|-----------|--------------|

G|------------|------------|-----------|--------------|
D|------------|------------|-----------|--------------|
A|------------|-------6/8-6|--6-----6--|------6/8\6--4|
E|---6-----6--|-4----------|-----------|--4-----------|

G|------------|------------|-----------|--------------|
D|-----8/10\8-|-6----------|-------4---|--6-----------|
A|------------|---6---6/8-6|-----------|------6/8\6-4-|
E|-6-6--------|-----4------|2-2--2---2-|4---4---------|

G|------------|------------|-----------|--------------|
D|-----8/10\8-|-6----------|-------4---|--------------|
A|------------|---6---6/8-6|-----------|--------------|
E|-6-6--------|-----4------|2-2--2---2-|4-------------|


G|------------|------------|-----------|--------------|
D|-----8/10\8-|-6----------|-------4---|--6-----------|
A|------------|---6---6/8-6|-----------|------6/8\6-4-|
E|-6-6--------|-----4------|2-2--2---2-|4---4---------|

G|------------|------------|-----------|--------------|
D|-----8/10\8-|-6----------|-------4---|--6-----------|
A|------------|---6---6/8-6|-----------|------6/8\6-4-|
E|-6-6--------|-----4------|2-2--2---2-|4---4---------|


Outro:

G|------------|------------|-----------|--------------|
D|------------|------------|-----------|--------------|
A|------------|------------|-----------|--------------|
E|------------|------------|-----------|--------------|

G|------------|------------|-----------|--------------|
D|------------|------------|-----------|--------------|
A|------------|------------|-----------|--------------|
E|------------|------------|-----------|--------------|

************************************

 / - Slide up
 \ - Slide down

************************************

Almost there ...

Sign in to get your own page with links to favourite songs and more. You are just one click away...

Login with Facebook Login with Google