Log in

One click and you are in

Login with Facebook Login with Google

Why sign up and log in

Guitar Tabs Explorer
Blu Detiger bass tabs for Toast with the butter

Toast With The Butter bass tab - Blu Detiger

Blu Detiger bass tabs for Toast with the butter

Bass tabs

  • Difficulty: Intermediate
Tuning: Standard (E A D G)


Intro:

G|-------------------|------------------|------------------|---------------4---|
D|-----------5---5-7-|------------------|----------5---5-7-|-------------------|
A|-3/----5-7---7-----|-3--------3-2-2-2-|-3----5-7---7-----|-3--------3--2---2-|
E|-------------------|------3-5---------|------------------|------3-5----------|

Verse:

G|------------------5-----|-----5-------4-5-4-----|------------------5--|------7-5--5-4---------|
D|----------5---5-7--7-5--|-------5-7---------5-7-|------------5-5-7--7-|---------7------------7|
A|-3----5-7---7---------7-|-3---------------------|-3----3-5-7--7-------|-3--------------2----7-|
E|------------------------|-----------2-----------|---3-5---------------|-----------------------|

G|------------------5-----|-----5-------4-5-4-----|------------------5--|------7-5--5-4---------|
D|----------5---5-7--7-5--|-------5-7---------5-7-|------------5-5-7--7-|---------7------------7|
A|-3----5-7---7---------7-|-3---------------------|-3----3-5-7--7-------|-3--------------2----7-|
E|------------------------|-----------2-----------|---3-5---------------|-----------------------|


Chorus:

G|-------------------|------------------|------------------|---------------4---|
D|-----------5---5-7-|------------------|----------5---5-7-|-------------------|
A|-3/----5-7---7-----|-3--------3-2-2-2-|-3----5-7---7-----|-3--------3--2---2-|
E|-------------------|------3-5---------|------------------|------3-5----------|


Bridge:

G|---------------------------------------------------------------------------|
D|---5-----------------------------------------------------------------------|
A|-7---7--5---7-5---3--------------------------------------------------------|
E|---------------------------------------------------------------------------|


Outro:

G|--5-7/9-7-5-5-7~--5-7-9/12-9-7-7h9-|
D|-7---------------------------------|
A|-----------------------------------|
E|-----------------------------------|


************************************

| h  Hammer-on
| ~  Vibrato
| /  Slide up

************************************

Almost there ...

Sign in to get your own page with links to favourite songs and more. You are just one click away...

Login with Facebook Login with Google