Log in

One click and you are in

Login with Facebook Login with Google

Why sign up and log in

Guitar Tabs Explorer
Bloodwitch bass tabs for Hey little girl

Bass tabs

Tuning: Standard (E A D G)


Intro:

G|----------------|-----------------|
D|----------------|-----------------|
A|-0--0-0-0-0-0-0-|-5-5-5-5-7-7-7-7-|
E|----------------|-----------------|

G|-----------------|-----------------|
D|-----------------|-----------------|
A|-0-0-0-0-0-0-0-0-|-5-5-5-5-7-7-7-7-|x5
E|-----------------|-----------------|

Chorus 1:
"Hey Little Girl"

G|-----------------|-----------------|
D|-----------------|-----------------|
A|-0-0-0-0-0-0-0-0-|-5-5-5-5-7-7-7-7-|x3
E|-----------------|-----------------|

G|-----------------|-----------------|
D|-----------------|-----------------|
A|-0-0-0-0-5-5-5-5-|-0-0-0-0-0-0-0-0-|
E|-----------------|-----------------|

G|-----------------|-----------------|
D|-----------------|-----------------|
A|-0-0-0-0-0-0-0-0-|-5-5-5-5-7-7-7-7-|x3
E|-----------------|-----------------|

G|-----------------|-----------------|
D|-----------------|-----------------|
A|-0-0-0-0-5-5-5-5-|-0-0-0-0-0-0-0-0-|
E|-----------------|-----------------|


Verse 1:
"We can meet up after school"

G|-----------------|-----------------|-----------------|-----------------|
D|-----------------|-----------------|-----------------|-----------------|
A|-5-5-5-5-5-5-5-5-|-5-5-5-5-5-5-5-5-|-0-0-0-0-0-0-0-0-|-0-0-0-0-0-0-0-0-|
E|-----------------|-----------------|-----------------|-----------------|

G|-----------------|-----------------|-----------------|-----------------|
D|-----------------|-----------------|-----------------|-----------------|
A|-5-5-5-5-5-5-5-5-|-5-5-5-5-5-5-5-5-|-2-2-2-2-2-2-2-2-|-5-5-5-5-7-7-7-7-|
E|-----------------|-----------------|-----------------|-----------------|


Bridge:

G|-----------------|-----------------|
D|-----------------|-----------------|
A|-0-0-0-0-0-0-0-0-|-5-5-5-5-7-7-7-7-|x3
E|-----------------|-----------------|

G|-----------------|-----------------|
D|-----------------|-----------------|
A|-0-0-0-0-5-5-5-5-|-0-0-0-0-0-0-0-0-|
E|-----------------|-----------------|


Chorus 2:
"Hey little girl"

G|-----------------|-----------------|
D|-----------------|-----------------|
A|-0-0-0-0-0-0-0-0-|-5-5-5-5-7-7-7-7-|x3
E|-----------------|-----------------|

G|-----------------|-----------------|
D|-----------------|-----------------|
A|-0-0-0-0-5-5-5-5-|-0-0-0-0-0-0-0-0-|
E|-----------------|-----------------|



Verse 2:
"There's a party at the weekend"

G|-----------------|-----------------|-----------------|-----------------|
D|-----------------|-----------------|-----------------|-----------------|
A|-5-5-5-5-5-5-5-5-|-5-5-5-5-5-5-5-5-|-0-0-0-0-0-0-0-0-|-0-0-0-0-0-0-0-0-|
E|-----------------|-----------------|-----------------|-----------------|

G|-----------------|-----------------|-----------------|-----------------|
D|-----------------|-----------------|-----------------|-----------------|
A|-5-5-5-5-5-5-5-5-|-5-5-5-5-5-5-5-5-|-2-2-2-2-2-2-2-2-|-5-5-5-5-7-7-7-7-|
E|-----------------|-----------------|-----------------|-----------------|



Outro:
"Hey little girl"

G|-----------------|-----------------|
D|-----------------|-----------------|
A|-0-0-0-0-0-0-0-0-|-5-5-5-5-7-7-7-7-|x3
E|-----------------|-----------------|

G|-----------------|---------|
D|-----------------|---------|
A|-0-0-0-0-5-5-5-5-|-0-0-0-0-|
E|-----------------|---------|

Almost there ...

Sign in to get your own page with links to favourite songs and more. You are just one click away...

Login with Facebook Login with Google