Log in

One click and you are in

Login with Facebook Login with Google

Why sign up and log in

Guitar Tabs Explorer
Bloodwitch bass tabs for Below the sea

Bass tabs

Tuning: Standard (E A D G)


Intro:

G|---------------------------------------------------------------------------|
D|---------------------------------------------------------------------------|
A|---------------------------------------------------------------------------|
E|-3-3-3-3-3-3-3-3-3 3/8-8-8 8-5-5-5-0 0-------------------------------------|x6


Verse:

 The first track'll be for your ex-lover
G|---------------------------------------------------------------------------|
D|---------------------------------------------------------------------------|
A|---------------------------------------------------------------------------|
E|-3-3-3-3-3-3-3-3-3 3/8-8-8 8-5-5-5-0 0-------------------------------------|x3

 And the fourth track'll be for your aching body
G|---------------------------------------------------------------------------|
D|---------------------------------------------------------------------------|
A|---------------------------------------------------------------------------|
E|-3-3-3-3-3-3-3-3-3 3/8-8-8 8-5-5-5-5---------------------------------------|




Chorus:

 (Ooh) go away from me
G|---------------------------------------------------------------------------|
D|---------------------------------------------------------------------------|
A|---------------------------------------------------------------------------|
E|-/10-10-10-10-10-10-10-10 10-8-8-7-3--3-3-3-3 3----------------------------|x3

 (Ooh) far below the sea
G|---------------------------------------------------------------------------|
D|---------------------------------------------------------------------------|
A|---------------------------------------------------------------------------|
E|-5-5-5-5-5-5-5-7-8-8-7-3-3-3-3-3-------------------------------------------|x2



Bridge: (Instrumental)

G|---------------------------------------------------------------------------|
D|---------------------------------------------------------------------------|
A|---------------------------------------------------------------------------|
E|-3-3-3-3-3-3-3-3-3 3/8-8-8 8-5-5-5-0 0-------------------------------------|x6



Outro:

G|---------------------------------------------------------------------------|
D|---------------------------------------------------------------------------|
A|---------------------------------------------------------------------------|
E|-3-3-3-3-3-3-3-3-3 3/8-8-8 8-5-5-5-0 0-------------------------------------|x4

G|---------------------------------------------------------------------------|
D|---------------------------------------------------------------------------|
A|---------------------------------------------------------------------------|
E|-3-3-----------------------------------------------------------------------|


/ Slide up

Almost there ...

Sign in to get your own page with links to favourite songs and more. You are just one click away...

Login with Facebook Login with Google