Log in

One click and you are in

Login with Facebook Login with Google

Why sign up and log in

Guitar Tabs Explorer
Blood Sweat And Tears bass tabs for Youve made me so very happy

You've Made Me So Very Happy bass tab by Blood Sweat And Tears

Blood Sweat And Tears bass tabs for Youve made me so very happy

Bass tabs

Blood Sweat and Tears_You've Made Me So Very Happy

TablEdited by Jan Bjorklund  <jani_bjorklund@yahoo.se>
You are welcome to request for tabs!
Fingering and positions as suggested by TablEdit, please use common sense.
TablEdited by Jan Bjorklund

Tuning : E A D G 	Time Signature: 4/4

 |    |    |    |    |    |    |    |
|--------------------------------|--------------------------------|
|--------------------------------|--------------------------------|
|--------------------------------|--------------------------------|
|3-------------------------------|----------------------------4---|

 |    |    |    |    |    |    |    |
|--------------------------------|--------------------------------|
|--------------------------------|--------------------------------|
|--------------------------------|--------------------------------|
|3-------------------------------|--------------------------------|

 |    |    |    |    |    |    |    |
|--------------------------------|----------------2-0-------------|
|0---------------0---0-----------|----------------------2---0-----|
|--------------0-------------0---|3-----------------------------3-|
|--------------------------------|--------------------------------|

 |    |    |    |    |    |    |    |
|--------------------------------|----------------2-0-------------|
|0---------------0---0-----------|----------------------2-----1---|
|----------------------------0---|3-------------------------0-----|
|--------------------------------|--------------------------------|

 |    |    |    |    |    |    |    |
|--------------------------------|--------------------------------|
|0-------0-------0-------0---1---|0-------0-------0-------0---1---|
|----0-------0-------0-----------|----0-------0-------0-----------|
|--------------------------------|--------------------------------|

 |    |    |    |    |    |    |    |
|--------------------------------|--------------------0-----0-----|
|0-------0-------0-----0---------|------------------0-----0-----0-|
|----0-------0-------0-----0-----|--------------------------------|
|----------------------------4---|3-------3-----3-----------------|

 |    |    |    |    |    |    |    |
|------------------------------0-|--------------------------------|
|--------------------------0-----|--------------------------------|
|--------------------------------|--------------------------------|
|3---3-------3-------3-----------|3---3-------3-------0---1---2---|

 |    |    |    |    |    |    |    |
|----------------------------0---|--------------------------------|
|--------------------------0-----|--------0-----------------------|
|--------------------------------|--------------------------0-3---|
|3---3-------3-------3-----------|3---3-------3-------3---3-------|

 |    |    |    |    |    |    |    |
|--------------------------0---0-|2-----------2-------------------|
|--------------2-2-2---3---------|----2-----------2-------1-------|
|3---3-----3---------------------|--------------------------------|
|--------------------------------|--------------------------------|

 |    |    |    |    |    |    |    |
|--------------------------------|--------------------------------|
|0-------------------------------|--------------------------------|
|------------0---------------0---|3-----------0---------------0---|
|--------------------3-----------|--------------------3-----------|

 |    |    |    |    |    |    |    |
|--------------------------------|--------------------------------|
|0-------------------------------|----------------------------1---|
|------------0---------------0---|3-----------0-------------------|
|--------------------3-----------|--------------------3-----------|

 |    |    |    |    |    |    |    |
|--------------------------------|--------------------------------|
|0-------0-------0-------0---1---|0-------0-------0-------0---1---|
|----0-0-----0-0-----0-0---------|----0-0-----0-0-----0-0---------|
|--------------------------------|--------------------------------|

 |    |    |    |    |    |    |    |
|--------------------------------|--------------------0-----0-----|
|0-------0-------0-----0---------|------------------0-----0-----0-|
|----0-0-----0-0-----0-----3-----|--------------------------------|
|------------------------------4-|3-------3-----3-----------------|

 |    |    |    |    |    |    |    |
|--------------------------------|----------------------0---------|
|--------------------------------|--------------------0-----0---0-|
|--------------------------------|--------------------------------|
|3---3-------3-------0---1---2---|3---3-------3-----3-------------|

 |    |    |    |    |    |    |    |
|--------------------------------|------------0-------------------|
|--------------------------------|--------0-------------0---------|
|--------------------------------|--------------------------0-3---|
|3---3-------3-------0---1---2---|3---3-------------3-----3-------|

 |    |    |    |    |    |    |    |
|--------------------------0---0-|2---2-----------------2---------|
|----------------2-2---3---------|--------2---------2-------2-1---|
|3---3-----3---3-----------------|------------0-------------------|
|--------------------------------|--------------------------------|

 |    |    |    |    |    |    |    |
|----------------------------7---|----------------------------7---|
|--------------------4---5-7---7-|--------------------4---5-7---7-|
|5---7-------8-------------------|5---7-------8-------------------|
|--------------------------------|--------------------------------|

 |    |    |    |    |    |    |    |
|----------------------------7---|--------------------0-----------|
|--------------------4---5-7---7-|0---2-------3-----4-------------|
|5---7-------8-------------------|----------------------------2---|
|--------------------------------|------------------------3-------|

 |    |    |    |    |    |    |    |
|--------------------------0---0-|2---2---------------------------|
|----------------2-2---3---------|--------2-----------------------|
|3---------3---3-----------------|------------0-------------------|
|--------------------------------|--------------------------------|

 |    |    |    |    |    |    |    |
|--------------------------------|--------------------------------|
|----------------0-0---1---2-3---|----------------0-0---1---2-3---|
|1-----1-1---1-1-----------------|1-----1-1---1-1-----------------|
|--------------------------------|--------------------------------|

 |    |    |    |    |    |    |    |
|--------------------------------|----------------------------0---|
|3-------------------------------|----------------2-2---2---3-----|
|------3---------0-0---1---1-2---|3-----3-3---3-3-----------------|
|--------1-1---1-----------------|--------------------------------|

 |    |    |    |    |    |    |    |
|--------------------------------|--------------------------------|
|----------------0-0---1---2-3---|----------------0-0---1---3-1---|
|1-----1-1---1-1-----------------|1-----1-1---1-1-----------------|
|--------------------------------|--------------------------------|

 |    |    |    |    |    |    |    |
|------------------------------1-|0-------------------------------|
|0-------------------------------|--------------------------------|
|--------------------------------|--------------------------------|
|--------------------------------|--------------------------------|

 |    |    |    |    |    |    |    |
|--------------------------------|--------------------------------|
|0---------------------------0---|----------------------------0---|
|------------------------3-------|--------------------3-----------|
|--------------------------------|--------------------------------|

 |    |    |    |    |    |    |    |
|------------------------2-------|--------------------------------|
|2---------------------------2---|--------------------0-------2---|
|--------------------------------|--------------------------------|
|--------------------------------|--------------------------------|

 |    |    |    |    |    |    |    |
|--------------------------------|----------------------------0---|
|3-----------------------3---4---|--------------------------------|
|--------------------------------|--------------------------------|
|--------------------------------|--------------------------------|

 |    |    |    |    |    |    |    |
|------------------------7-------|----------------------------3---|
|----------------------------7---|--------------------------------|
|--------------------------------|--------------------------------|
|--------------------------------|--------------------------------|

 |    |    |    |    |    |    |    |
|------------------------7---5---|--------------------------------|
|--------------------------------|--------------------------------|
|--------------------------------|--------------------------------|
|--------------------------------|--------------------------------|

 |    |    |    |    |    |    |    |
|7-----------7-------5-----------|----2---5---2-----2-------------|
|------------------------7-------|5-------------------5-2---------|
|--------------------------------|------------------------5-3-----|
|--------------------------------|----------------------------5---|

 |    |    |    |    |    |    |    |
|8-----------8-------6-----------|----3---6---3-----3-------------|
|------------------------8-------|6-------------------6-3---------|
|--------------------------------|------------------------6-4-----|
|--------------------------------|----------------------------6---|

 |    |    |    |    |    |    |    |
|7-----------7-------5-----------|----6---8-----------------------|
|------------------------7-------|8-------------------------------|
|--------------------------------|--------------------------------|
|--------------------------------|------------9-------1---------2-|

 |    |    |    |    |    |    |    |
|--------------------------------|------------------------------3-|
|--------------------------------|----------------1---------------|
|----------1-4---4---------------|----------1-4-------------------|
|--3---3-4-----------1---------2-|--3---3-4-----------------------|

 |    |    |    |    |    |    |    |
|8-------8-----------------------|8-6-----------------------------|
|----8-----8---8---------8-----8-|------8---6---------------------|
|----------------6---6-----------|------------9---6-------------6-|
|--------------------------------|--------------------------------|

 |    |    |    |    |    |    |    |
|--------------------------------|--------1---------------------1-|
|------------1-------------------|----1-----1-------------3-4-----|
|------1-------------4-------1---|----------------4---4-----------|
|2-4-----------------------------|4-------------4-----------------|

 |    |    |    |    |    |    |    |
|--2---3---------3---------------|------------------------8-------|
|------------3-------3-------3---|--8-----8-------------8---8-----|
|------------------------1-------|------8---8-7---6-------------6-|
|--------------------------------|--------------------------------|

 |    |    |    |    |    |    |    |
|------3-----1-------------------|------------------------5-------|
|--1-------1-----4-------4-------|4-----4-----4-----------------3-|
|------------------------------4-|--4-------4-----4---4-----------|
|--------------------------------|--------------------------------|

 |    |    |    |    |    |    |    |
|--------------1-3---------------|--3-----3-----------------------|
|----1-2-3-4---------3-------3---|------3---3-2---1---3-------4---|
|--3---------------------1-------|--------------------------------|
|--------------------------------|--------------------------------|

 |    |    |    |    |    |    |    |
|----0-----------1---------------|--------------------------------|
|--------------------------------|--------------------------------|
|--------------------------------|--------------------------------|
|--------------------------------|--------------------------------|

 |    |    |    |    |    |    |    |
|--------------------------------|--------------------------------|
|--------------------------------|--------------------------------|
|--------------------------------|--------------------------------|
|--------------------------------|--------------------------------|

 |    |    |    |    |    |    |    |
|--------------------------------|--------------------------------|
|--------------------------------|--------------------------------|
|--------------------------------|--------------------------------|
|--------------------------------|--------------------------------|

 |    |    |    |    |    |    |    |
|--------------------------------|--------------------------------|
|----------------4-------4-------|4-------4---------------------3-|
|------------------------------4-|----------4---4-2-------2-------|
|--------------------------------|--------------------------------|

 |    |    |    |    |    |    |    |
|--------------------------------|--------------------------------|
|----------------4-------4-------|4-------4---------------------3-|
|----2-----2---4---------------4-|----------4---4-2-------2-------|
|--------------------------------|--------------------------------|

 |    |    |    |
|--------------------------------|
|--------------------------------|
|----2-----2---4-----------------|
|--------------------------------|

↓ Add and view comments below ↓

What do you think about this song and these tabs?

Add your comments, questions, rant or a thumbs up below.

Almost there ...

Sign in to get your own page with links to favourite songs and more. You are just one click away...

Login with Facebook Login with Google