Guitar Tabs Explorer
Blood Sweat And Tears bass tabs for Spinning wheel

Spinning Wheel bass tab


2.4 / 5 [5 votes]

Spinning Wheel bass tab by Blood Sweat And Tears

Bass tabs

Print
Basstab by Jan Bjorklund, Finland;
jani_bjorklund@yahoo.se
You are welcome to request for basstabs!
Bienvenidos a pedirme transcripciones para el bajo!


TablEdited by Jan Bjorklund
Tuning : E A D G 	Time Signature: 4/4

 tempo 96|       |       |        |       |       |       |
|--------------------------------|--------------------------------|
|--------------------------------|2-------------------------------|
|--------------------------------|----------------0-------0---3---|
|--------------------------------|------------3-------------------|

 |       |       |       |        |       |       |       |
|--------------------------------|--------------------------------|
|0-------0-------------------0---|2-------2-----------------------|
|------------------------2-------|----------------0-------0---3---|
|------------1---3---------------|------------3-------------------|

 |       |       |       |        |       |       |       |
|--------------------------------|--------------------------------|
|0-------0-----------------------|2-------------------------------|
|------------------------2---4---|----------------0-------0---3---|
|------------1---3---------------|------------3-------------------|

 |       |       |       |        |       |       |       |
|--------------------------------|--------------------------------|
|0-------0-----------------------|0-------------------------------|
|------------------------0---2---|--------------------------------|
|------------1---3---------------|--------------------------------|

 |       |       |       |        |       |       |       |
|--------------------------------|--------------------------------|
|--------------------------------|2-------------------------------|
|--------------------------------|------------0-0-0---0---3---4---|
|--------------------------------|--------3-----------------------|

 |       |       |       |        |       |       |       |
|--------------------------------|--------------------------------|
|0---0-----------------------0---|2-----2-------------------------|
|------------------------0-1-----|----------------0-----0-3---4---|
|--------1-1-2---3---3-----------|--------3-3-4-------------------|

 |       |       |       |        |       |       |       |
|--------------------------------|--------------------------------|
|0---0-----------------------0---|2-----2-------------------------|
|------------------------2-2-----|----------------0---0---3---4---|
|--------1-1-2---3---------------|--------3---4-4-----------------|

 |       |       |       |        |       |       |       |
|--------------------------------|--------------------------------|
|0-----0-------------------------|0-------------------------------|
|------------------------0---2---|--------------------------------|
|--------1---2---3---0-3---------|--------------------------------|

 |       |       |       |        |       |       |       |
|--------------------------------|--------------------------------|
|--------------------------------|--------------------------------|
|--------------------------------|3-----2-3-----2-3-----2-3-----2-|
|--------------------------------|--------------------------------|

 |       |       |       |        |       |       |       |
|--------------------------------|--------------------------------|
|--------------------------------|--------------------------------|
|1-----0-1-----0-1-----0-1-1-1---|--------------------------------|
|--------------------------------|4-----3-4-----3-4-----3-4-4-4---|

 |       |       |       |        |       |       |       |
|--------------------------------|--------------------------------|
|--------------------------------|--------------------------------|
|--------------------------------|3-----2-3-----2-3-----2-3-3-3---|
|3-----2-3-----2-3-----2-3-3-3---|--------------------------------|

 |       |       |       |        |       |       |       |
|--------------------------------|--------------------------------|
|--------------------------------|--------------------------------|
|1-----0-1-----0-1-1---1-1-1-1---|--------------------------------|
|--------------------------------|4-----3-4-----3-4-----3-4-4-4---|

 |       |       |       |        |       |       |       |
|0-------------------------------|0-------------------------------|
|--------------------------------|--------------------------------|
|--------------------------------|--------------------------------|
|--------------------------------|--------------------------------|

 |       |       |       |        |       |       |       |
|--------3-----------------------|----3-4-5-----------------------|
|--------------3-------3---------|--------------5-------5---------|
|1---0-------------1-----1---1---|3-----------------3-----3-------|
|--------------------------------|----------------------------0-0-|

 |       |       |       |        |       |       |       |
|----5-6-7-----------------------|--------------------------------|
|--------------7-------7---------|--------------------------------|
|5-----------------5-----5-------|5-------5-------5-5-----5-5-----|
|----------------------------5-5-|----5-------5-5-----5-------5---|

 |       |       |       |        |       |       |       |
|----------------------------7---|--------7-----7---7---7---------|
|--------------------------------|------------7-------------7-5---|
|5-------5-----5-5-5---5-5-------|5-------------------------------|
|----5-------5-------5-----------|----5---------------------------|

 |       |       |       |        |       |       |       |
|--------------------------------|--------------------------------|
|3---3---3---3---3-3-3---3-3-3---|3-3-3-3-3---3-3-3-3-----3-------|
|--------------------------------|--------------------------------|
|--------------------------------|--------------------------------|

 |       |       |       |        |       |       |       |
|--------------------------------|--------------------------------|
|2-------------------------------|---------  and so on  ----------|
|----------------0---0---3-3-4---|--------------------------------|
|--------3---4-------------------|--------------------------------|




_____________________________________________________

Comment this song and these bass tabs

Do you have corrections, comments on the bass tabs, thoughts about the song or a message to the author? Write them below.