Log in

One click and you are in

Login with Facebook Login with Google

Why sign up and log in

Guitar Tabs Explorer
Blood Sweat And Tears bass tabs for Spinnin wheel

Spinnin Wheel bass tab by Blood Sweat And Tears

Blood Sweat And Tears bass tabs for Spinnin wheel

Bass tabs

blood sweat and tears_spinnin' wheel

TablEdited by Jan Bjorklund   <jani_bjorklund@yahoo.se>
You are welcome to request for tabs!
Fingering and positions as suggested by TablEdit, please use common sense.
TablEdited by Jan Bjorklund
Tuning : E A D G 	Time Signature: 4/4

  |       |       |       |        |       |       |       |
|--------------------------------|--------------------------------|
|2-------2-----------------------|0-------0-------------------0---|
|----------------0-------0---3---|------------------------2-------|
|------------3-------------------|------------1---3---------------|

  |       |       |       |        |       |       |       |
|--------------------------------|--------------------------------|
|2-------2-----------------------|0-------0-----------------------|
|----------------0-------0---3---|------------------------0---2---|
|------------3-------------------|------------1---3---------------|

  |       |       |       |        |       |       |       |
|--------------------------------|--------------------------------|
|0-------------------------------|----0---------------------------|
|--------------------------------|--------------------------------|
|--------------------------------|--------------------------------|

  |       |       |       |        |       |       |       |
|--------------------------------|--------------------------------|
|0-------0-------------------0---|0-------------------------------|
|------------------------2-------|--------------------------------|
|------------1---3---------------|--------------------------------|

  |       |       |       |        |       |       |       |
|--------------------------------|--------------------------------|
|----0---------------------------|--------------------------------|
|--------------------------------|3-----3-3-----3-3-----3-3-3-3---|
|--------------------------------|--------------------------------|

  |       |       |       |        |       |       |       |
|--------------------------------|--------------------------------|
|--------------------------------|--------------------------------|
|1-----1-1-----1-1-----1-1-1-1---|--------------------------------|
|--------------------------------|4-----4-4-----4-4-----4-4-4-4---|

  |       |       |       |        |       |       |       |
|--------------------------------|--------------------------------|
|--------------------------------|--------------------------------|
|--------------------------------|3-----3-3-----3-3-----3-3-3-3---|
|3-----3-3-----3-3-----3-3-3-3---|--------------------------------|

  |       |       |       |        |       |       |       |
|--------------------------------|--------------------------------|
|--------------------------------|--------------------------------|
|1-----1-1-----1-1-----1-1-1-1---|--------------------------------|
|--------------------------------|4-----4-4-----4-4-----4-4-4-4---|

  |       |       |       |        |       |       |       |
|--------------------------------|0-------------------------------|
|--------------------------------|--------------------------------|
|--------------------------------|--------------------------------|
|3-------------------------------|--------------------------------|

  |       |       |       |        |       |       |       |
|----1-2-3-----------------------|----3-4-5-----------------------|
|--------------3-------3---------|--------------5-------5---------|
|1-----------------1-----1---1---|3-----------------3-----3---3---|
|--------------------------------|--------------------------------|

  |       |       |       |        |       |       |       |
|----5-6-7-----------------------|--------------------------------|
|--------------7-------7---------|0-------0-----0---0-----0-------|
|5-----------------5-----5-------|----0-------0-------0-------0---|
|----------------------------5---|--------------------------------|

  |       |       |       |        |       |       |       |
|--------------------------------|--------------------------------|
|0-------0-----0---0-----0-------|0-------0-----0---0-----0-------|
|----0-------0-------0-------0---|----0-------0-------0-------0---|
|--------------------------------|--------------------------------|

  |       |       |       |        |       |       |       |
|--------------------------------|--------------------------------|
|3---3---3---3---3-------3-------|3-3-3-3-3---3-3-3-3-----3-------|
|--------------------------------|--------------------------------|
|--------------------------------|--------------------------------|

  |       |       |       |        |       |       |       |
|--------------------------------|--------------------------------|
|--------------------------------|2-------------------------------|
|--------------------------------|----------------0-------3---4---|
|--------------------------------|--------3---4-------------------|

  |       |       |       |        |       |       |       |
|--------------------------------|--------------------------------|
|0---------------------------0---|2-------------------------------|
|------------------------2-------|----------------0-------3---4---|
|--------1---2---3---------------|--------3---4-------------------|

  |       |       |       |        |       |       |       |
|--------------------------------|--------------------------------|
|0-------------------------------|2-------2-----------------------|
|--------------------------------|----------------0-------3---4---|
|--------1---2---3---------------|------------3-------------------|

  |       |       |       |        |       |       |       |
|--------------------------------|--------------------------------|
|0-------------------------------|0-------------------------------|
|------------------------0---2---|--------------------------------|
|--------1---2---3---------------|--------------------------------|

  |       |       |       |        |       |       |       |
|--------------------------------|------------0-------------------|
|----0---------------------------|------3-------------------------|
|--------------------------------|--------------------0---1---2---|
|--------------------------------|3-----1-----3-----3-------------|

  |       |       |       |        |       |       |       |
|------------0-------------------|------------0-------------------|
|------3-------------0-----------|------3-------------------------|
|--------------------------------|--------------------0---1---2---|
|3-----1-----3-----3-----1---2---|3-----1-----3-----3-------------|

  |       |       |       |        |       |       |       |
|------------0-------------------|--------9-----------------------|
|------3-------------0-----------|----9-------8---7---------------|
|--------------------------------|8-------------------0---7---6---|
|3-----1-----3-----3-----1---2---|--------------------------------|

  |       |       |       |        |       |       |       |
|----2-------2-------2---3---4---|----9---------------9-----------|
|----------------5---------------|--------9---8---7-------7-------|
|5-------5-----------------------|7---------------------------6---|
|--------------------------------|--------------------------------|

  |       |       |       |        |       |       |       |
|----2-------2-------2---3---4---|--------9-----------------------|
|----------------5---------------|----9-------8---7---------------|
|5-------5-----------------------|8-------------------0---7---6---|
|--------------------------------|--------------------------------|

  |       |       |       |        |       |       |       |
|--------------------------------|--------------------------------|
|--------------------------------|--------------------------------|
|--------------------------------|--------------------------------|
|--------------------------------|--------------------------------|

  |       |       |       |        |       |       |       |
|--------------------------------|--------------------------------|
|0-----0-------------------------|--------------------------------|
|--------------------------------|--------------------------------|
|--------------------------------|--------------------------------|

  |       |       |       |        |       |       |       |
|--------------------------------|--------------------------------|
|----------------2---------------|----------------0---------------|
|--------------------------------|0-------3---4-------------------|
|------------------------3---4---|------------------------1---2---|

  |       |       |       |        |       |       |       |
|--------------------------------|--------------------------------|
|------------0---2---------------|----------------0---------------|
|--------2-----------------------|0-------3---4-------------------|
|3-----------------------3---4---|------------------------1---2---|

  |       |       |       |        |       |       |       |
|--------------------------------|--------------------------------|
|----------------2-------2-------|----------------0---------------|
|--------------------------------|0-------3---4-------------------|
|3---------------------------3---|------------------------1---2---|

  |       |       |       |        |       |       |       |
|--------------------------------|--------------------------------|
|----------------0---------------|--------------------------------|
|--------0---2-------------------|--------------------------------|
|3-------------------------------|--------------------------------|

  |       |       |       |        |       |       |       |
|--------------------------------|--------------------------------|
|--------2-----------------------|------------------------1-------|
|--------------------------------|0-------------------------------|
|--------------------------------|--------------------------------|

  |       |       |       |        |       |       |       |
|--------------------------------|--------------------------------|
|----------------0---------------|--------------------------------|
|--------------------------------|--------------------------------|
|--------------------------------|----------------3---------------|

  |       |       |       |        |       |       |       |
|--------------------------------|--------------------------------|
|2-------------------------------|----------------1---------------|
|------------------------0-------|--------------------------------|
|--------------------------------|--------------------------------|

  |       |       |       |        |       |       |       |
|--------------------------------|--------------------------------|
|--------0-----------------------|--------------------------------|
|--------------------------------|--------------------------------|
|--------------------------------|--------3-----------------------|

  |       |       |       |        |       |       |       |
|--------------------------------|--------------------------------|
|------------------------2-------|--------------------------------|
|--------------------------------|----------------0---------------|
|--------------------------------|--------------------------------|

  |       |       |       |        |       |       |       |
|--------------------------------|--------------------------------|
|--------1-----------------------|0-------------------------------|
|--------------------------------|--------------------------------|
|--------------------------------|--------------------------------|

  |       |       |       |        |       |       |       |
|--------------------------------|--------------------------------|
|--------------------------------|----------------2---------------|
|--------------------------------|--------------------------------|
|3-------------------------------|--------------------------------|

  |       |       |       |        |       |       |       |
|--------------------------------|--------------------------------|
|--------------------------------|1-----------------------0-------|
|--------0-----------------------|--------------------------------|
|--------------------------------|--------------------------------|

  |       |       |       |        |       |       |       |
|--------------------------------|--------------------------------|
|--------------------------------|--------2-----------------------|
|--------------------------------|--------------------------------|
|------------------------3-------|--------------------------------|

  |       |       |       |        |       |       |       |
|--------------------------------|--------------------------------|
|2-------------------------------|----------------1---------------|
|------------------------0-------|--------------------------------|
|--------------------------------|--------------------------------|

  |       |       |       |        |       |       |       |
|--------------------------------|--------------------------------|
|--------0-----------------------|------------------------2-------|
|--------------------------------|--------------------------------|
|--------------------------------|--------3-----------------------|

  |       |       |       |        |       |       |       |
|--------------------------------|--------------------------------|
|--------------------------------|--------1-----------------------|
|----------------0---------------|--------------------------------|
|--------------------------------|--------------------------------|

  |       |       |       |        |       |       |       |
|--------------------------------|--------------------------------|
|0-------------------------------|--------------------------------|
|--------------------------------|--------------------------------|
|--------------------------------|3-------------------------------|

Almost there ...

Sign in to get your own page with links to favourite songs and more. You are just one click away...

Login with Facebook Login with Google