Search tabs and chords

Search for song, artist or band

Log in

One click and you are in

Login with Facebook Login with Google

Why sign up and log in

Guitar Tabs Explorer
Blood Sweat And Tears bass tabs for I love you more than youll ever know

I Love You More Than You'll Ever Know bass tab by Blood Sweat And Tears

Blood Sweat And Tears bass tabs for I love you more than youll ever know

Bass tabs

  • Tuning: Standard tuning
  • Difficulty: Intermediate
-------------------------------------------------------------------
                     Artist - Blood, Sweat & Tears
                    *******************************
             Song - I Love You More Than You`ll Ever Know
            **********************************************
               Album - Child is Father to the Man (1968)
              *******************************************
                        Tabbed By - Ayreon77
                       **********************
-------------------------------------------------------------------
Tuning = Standard

INTRO
******
G|-------------|-------------|----------|-------------|
D|--------5~~~-|-------------|-----5~~~-|-------------|
A|-3~~~-3------|-----5---3~~-|-3-3------|-----5---3~~-|
E|-------------|-3-6---6-----|----------|-3-6---6-----|


------------------
00:13
verse 1
********
G|-------|-5-3----------|-------|-------------|
D|-------|-----5--3-5~~-|---5~~-|-------------|
A|---3~~-|--------------|-5-----|-----5---3~~-|
E|-3-----|--------------|-------|-3-6---6-----|


G|-------|-5-3----------|-------|
D|-------|-----5--3-5~~-|---5~~-|
A|---3~~-|--------------|-5-----|
E|-3-----|--------------|-------|

------------------
00:31
CHORUS
*******
G|------------|-----------------|-------------|------------------|
D|----5-4-3~~-|---3~~---3-4-5~~-|---5~~-5-6~~-|---6~~----6---5~~-|
A|------------|-3-----3---------|-5-----------|-6------6---6-----|
E|-3----------|-----------------|-------------|------------------|

00:41
G|-----3--4--5~~-|-5------------------------|
D|---5-----------|---8~~--8-7~~--7-6~~--5~~-|
A|-5-------------|--------------------------|
E|---------------|--------------------------|


------------------
00:54
BREAK
******
G|-------------|-------------|--------|-------------|
D|--------5~~~-|-------------|---5~~~-|-------------|
A|-3~~~-3------|-----5---3~~-|-5------|-----5---3~~-|
E|-------------|-3-6---6-----|--------|-3-6---6-----|


------------------
01:07
VERSE 2
********
G|-------|-5-3----------|-------|-------------|
D|-------|-----5--3-5~~-|---5~~-|-------------|
A|---3~~-|--------------|-5-----|-----5---3~~-|
E|-3-----|--------------|-------|-3-6---6-----|


G|-------|-5-3----------|----------|
D|-------|-----5--3-5~~-|-5----5~~-|
A|---3~~-|--------------|----5-----|
E|-3-----|--------------|----------|


------------------
01:25
CHORUS
*******
G|------------|-----------------|-------------|--------------------------|
D|----5-4-3~~-|---3~~---3-4-5~~-|---5~~-5-6~~-|---6---6~~---6---6---6-5~~|
A|------------|-3-----3---------|-5-----------|-6---6-----6---6---6------|
E|-3----------|-----------------|-------------|--------------------------|

01:35
G|-----3--4--5~~-|-5------------------------|
D|---5-----------|---8~~--8-7~~--7-6~~--5~~-|
A|-5-------------|--------------------------|
E|---------------|--------------------------|


------------------
01:47
BRIDGE
*******
G|-------------5-5-5-------|-----------|-8-5-----|-----------|
D|-------5-5-5-------------|-----------|-----8-5-|-6---6---6-|
A|-3~~-3-------------3-5-6-|-6---6---6-|---------|---6---6---|
E|-------------------------|---6---6---|---------|-----------|

01:57
G|---------|-----------|-8-5-----|-----------|
D|---------|-----------|-----8-5-|-6---6---6-|
A|---5-6-8-|-6---6---6-|---------|---6---6---|
E|-8-------|---6---6---|---------|-----------|

02:02
G|---------|-----------|-8-5-----|-----------|
D|---------|-----------|-----8-5-|-6---6---6-|
A|---5-6-8-|-6---6---6-|---------|---6---6---|
E|-8-------|---6---6---|---------|-----------|

02:07
G|---------|-----------|-8-5-----|-----------|
D|---------|-----------|-----8-5-|-6---6---6-|
A|---5-6-8-|-6---6---6-|---------|---6---6---|
E|-8-------|---6---6---|---------|-----------|

02:12                  I know that I could be
G|-------------5~~-|-5---------3-5~~-|-5-3------2-------|
D|-6-5---5-6-8-----|---5---3-5-------|-----5--5---5-----|
A|-----8-----------|-----3-----------|--------------3~~-|
E|-----------------|-----------------|------------------|
02:20
  Fast                                Fast
G|-------2-5~-2-------|----------5~~-|-3-2-------|
D|---2-5--------5-2---|----2-3-5-----|-----5-3~~-|
A|-3----------------3-|-3------------|-----------|
E|--------------------|--------------|-----------|

02:25
G|-5-----5---5-------5--5-----5-------------3-----------7-5---------|---------|
D|---3~~---3---3-4~~------4~~---4-5-5-5-3-5---5-3-5-3-5-----8-7-5~~-|---------|
A|------------------------------------------------------------------|-6-5-3~~-|
E|------------------------------------------------------------------|---------|


------------------
02:37
VERSE 3
********
G|-------|-5-3----------|-------|-------------|
D|-------|-----5--3-5~~-|---5~~-|-------------|
A|---3~~-|--------------|-5-----|-----5---3~~-|
E|-3-----|--------------|-------|-3-6---6-----|


G|-------|-5-3----------|-------|
D|-------|-----5--3-5~~-|---5~~-|
A|---3~~-|--------------|-5-----|
E|-3-----|--------------|-------|


------------------
02:55
CHORUS
*******                s                                           s
G|------------|-------3\5----------------------|------------------5\7-7-----|
D|----5-4-3~~-|---3~~-------5~~-5----5~~-------|---6~~----6---5~~-------5~~-|
A|------------|-3---------5--------5-----5-4-3-|-6------6---6---------------|
E|-3----------|--------------------------------|----------------------------|

03:06
G|-3--4--5~~-|-5------------------------|
D|-----------|---8~~--8-7~~--7-6~~--5~~-|
A|-----------|--------------------------|
E|-----------|--------------------------|


------------------
03:17
BREAK
******
G|------------|-------------|-------|-------------|
D|------------|-------------|---5~~-|-------------|
A|---3~~------|-----5---3~~-|-5-----|-----5---3~~-|
E|-3------3~~-|-3-6---6-----|-------|-3-6---6-----|


------------------
03:31
SAX SOLO
*********
G|-------|-5-3----------|-------|-------------|
D|-------|-----5--3-5~~-|-------|-------------|
A|---3~~-|--------------|-3-----|-----5---3~~-|
E|-3-----|--------------|---3~~-|-3-6---6-----|


G|-------|-5-3----------|-------|
D|-------|-----5--3-5~~-|-------|
A|---3~~-|--------------|-3-----|
E|-3-----|--------------|---3~~-|

03:48
G|------------|---------------|---------------|----------------------------|
D|----5-4-3~~-|---3~~---3-5~~-|-5-----------5-|-6~~---6---------6----6-5~~-|
A|------------|-3-----3-------|---5---3~~-5---|---------6---6~~----6-------|
E|-3----------|---------------|-----3---------|-----4-----4----------------|

03:59
G|-----3--4--5~~-|-5------------------------|
D|---5-----------|---8~~--8-7~~--7-6~~--5~~-|
A|-5-------------|--------------------------|
E|---------------|--------------------------|


------------------
04:11
BREAK
******
G|------------|-------------|-------|-------------|
D|------------|-------------|-------|-------------|
A|---3~~------|-----5---3~~-|-3-----|-----5---3~~-|
E|-3------3~~-|-3-6---6-----|---3~~-|-3-6---6-----|


------------------
04:25
VERSE 4
********
G|-------|-5-3----------|-------|-------------|
D|-------|-----5--3-5~~-|---5~~-|-------------|
A|---3~~-|--------------|-5-----|-----5---3~~-|
E|-3-----|--------------|-------|-3-6---6-----|


G|-------|-5-3----------|-------|
D|-------|-----5--3-5~~-|---5~~-|
A|---3~~-|--------------|-5-----|
E|-3-----|--------------|-------|


------------------
04:43
CHORUS
*******
G|---------|---------------------------------|------------------------|
D|-5-4-3~~-|---3~~---3-4-5-------------3-5~~-|-6~~--6---------6---5~~-|
A|---------|-3-----3------5--3~~-3-5~~-------|--------6---3-6---6-----|
E|---------|---------------3-----------------|----------4-------------|

04:52
G|-7----7--6--5~~-|-5---------------------4-5~~-|-5---------------------|
D|----5-----------|---8~~-8-7~~-7-6~~-5~~-------|---8~~-8-7~~-----------|
A|----------------|-----------------------------|-----------------------|
E|----------------|-----------------------------|-------------5~~~-3~~~-|


------------------
05:23
OUTRO
******
G|-------------|-------------|----------|-------------|
D|-------------|-------------|------5~~-|-------------|
A|-3~~~-3------|-----5---3~~-|-3--3-----|-----5---3~~-|
E|--------3~~~-|-3-6---6-----|----------|-3-6---6-----|

                            Fade Out..............................................
G|-5~~~-5-----------|-------------|---5~~~-5---------|-------------|---5~~~-------|
D|--------3-4-5~~-5-|-------------|-5--------3-4-5~~-|-------------|-5------3-5~~-|
A|------------------|-----5---3~~-|------------------|-----5---3~~-|--------------|
E|------------------|-3-6---6-----|------------------|-3-6---6-----|--------------|


ENJOY.............

I Love You More Than You'll Ever Know bass tab

Blood Sweat And Tears bass tabs for I love you more than youll ever know From their Child is Father to the Man (1968) Album.

Almost there ...

Sign in to get your own page with links to favourite songs and more. You are just one click away...

Login with Facebook Login with Google