Log in

One click and you are in

Login with Facebook Login with Google

Why sign up and log in

Guitar Tabs Explorer
Blood Red Shoes bass tabs for Forgive nothing

Bass tabs

Tuning: Standard (E A D G)


Verse: (0:10)
 1  &  2  &  3  &  4  &  1  &  2  &  3  &  4  &
G|--------------------------------|--------------------------------|
D|--------------------------------|--------------------------------|
A|--------------------------------|17--17--0---0---15--15--0---0---| x8
E|17--17--0---0---15--15--0---0---|--------------------------------|

G|--------------------------------|--------------------------------|
D|--------------------------------|--------------------------------|
A|14--14--14--14--14--13--13--0---|10--10--10--10--10--10--10--0---|
E|--------------------------------|--------------------------------|

Chorus: (0:41)
 1 & 2 & 3 & 4 & 1 & 2 & 3 & 4 &
G|----------------|----------------|
D|----------------|----------------|
A|----------------|15\-3-3-3-0-0-0-| x3
E|17\-5-5-5-0-0-0-|----------------|

G|----------------|----------------|
D|----------------|----------------|
A|----------------|15~---r---------|
E|17\-5-5-5-0-0-0-|----------------|


Verse: (0:54)
 1  &  2  &  3  &  4  &  1  &  2  &  3  &  4  &
G|--------------------------------|--------------------------------|
D|--------------------------------|--------------------------------|
A|--------------------------------|17--17--0---0---15--15--0---0---| x6
E|17--17--0---0---15--15--0---0---|--------------------------------|

G|--------------------------------|--------------------------------|
D|--------------------------------|--------------------------------|
A|14--14--14--14--14--13--13--0---|10--10--10--10--10--10--10--0---|
E|--------------------------------|--------------------------------|


Chorus: (1:18)
 1 & 2 & 3 & 4 & 1 & 2 & 3 & 4 &
G|----------------|----------------|
D|----------------|----------------|
A|----------------|15\-3-3-3-0-0-0-| x3
E|17\-5-5-5-0-0-0-|----------------|

G|----------------|----------------|
D|----------------|----------------|
A|----------------|15~---r---------|
E|17\-5-5-5-0-0-0-|----------------|


Bridge: (1:32)
 1  &  2  &  3  &  4  &
G|--------------------------------|
D|--------------------------------|
A|--------------------------------| x8
E|15--15--15--15--15--0~----------|

G|--------------------------------|
D|--------------------------------|
A|13--13--13--13--13--------------| x4
E|--------------------0~----------|

G|--------------------------------|
D|--------------------------------|
A|--------------------------------| x4
E|15--15--15--15--15--0~----------|

G|--------------------------------|    |--------------------------------|
D|--------------------------------|    |--------------------------------|
A|--------------------------------| x15  |--------------------------------|
E|13--13--13--13--13--13--13--13--|    |13------------------------------|


Verse: (2:25)
 1  &  2  &  3  &  4  &  1  &  2  &  3  &  4  &
G|--------------------------------|--------------------------------|
D|--------------------------------|--------------------------------|
A|--------------------------------|17--17--0---0---15--15--0---0---| x6
E|17--17--0---0---15--15--0---0---|--------------------------------|


Chorus: (2:45)
 1 & 2 & 3 & 4 & 1 & 2 & 3 & 4 &
G|----------------|----------------|
D|----------------|----------------|
A|----------------|15\-3-3-3-0-0-0-| x3
E|17\-5-5-5-0-0-0-|----------------|

G|----------------|----------------|
D|----------------|----------------|
A|----------------|15~---r---------|
E|17\-5-5-5-0-0-0-|----------------|


************************************

| \ Slide down
| r Release
| ~ Vibrato

************************************
ⓘ Bass guitar tab for 'Forgive Nothing' by Blood Red Shoes, an alternative rock band formed in 2005 from Brighton, England. Blood Red Shoes is known for their bittersweet rock/pop music.

Almost there ...

Sign in to get your own page with links to favourite songs and more. You are just one click away...

Login with Facebook Login with Google