Log in

One click and you are in

Login with Facebook Login with Google

Why sign up and log in

Guitar Tabs Explorer
Blondie bass tabs for War child

Bass tabs

std tuning EADG timing a bit funny at beginning so tab might look off
> slide up
< slide down


INTRO
G |-----------------|-----------------|-----------------|-----------------|
D |-----------------|-----------------|-----------------|---------2-4<2---|
A |--REST-----------|---REST----------|--REST-----------|-----------------|
E |-----------------|-----------------|-----------------|-----------------|
  1 & 2 & 3 & 4 &  1 & 2 & 3 & 4 &  1 & 2 & 3 & 4 &  1 & 2 & 3 & 4 &
G |-----------------|-----------------|-----------------|-----------------|
D |-----------------|-----------------|-----------------|-----------------|
A |-----------------|-----------------|-------------2-44|---------2-0-----|
E |-2-2-2-2-2-2-2-2-|-2-2-2-2-2-2-2-2-|-2-2-2-2-2-2-----|-2-2-2-2-----4-0-|
  1 & 2 & 3 & 4 &  1 & 2 & 3 & 4 &  1 & 2 & 3 & 4 &  1 & 2 & 3 & 4
G |-7>-9>-1111------|-----------------|
D |-----------------|-----------------|
A |-----------------|-----------------|
E |-----------------|-2-2-2-2-2-2-2-2-|
  1 & 2 & 3 & 4 &  1 & 2 & 3 & 4 &


VERSE 1
G |---------4--4>7--|-----------------|---------4--4-77-|-----------------|
D |----2-3-5--------|-----------------|----2-3-5--------|-----------------|
A |-3-3------2------|-----------------|-3-3------2------|-----------------|
E |-----------------|-2-2-2-2-2-2-2-2-|-----------------|-2-2-2-2-2-2-2-2-|
  1 & 2 & 3 & 4 &  1 & 2 & 3 & 4 &  1 & 2 & 3 & 4 &  1 & 2 & 3 & 4 &
G |---------4----2-4|-----------------|---------4--2420-|-----------------|
D |----2-3-5---4----|-----------------|----2-3-5--------|-----------------|
A |-3-3------2------|-----------------|-3-3------2------|-----------------|
E |-----------------|-2-2-2-2-2-2-2-2-|-----------------|-2-2-2-2-2-2-2-5-|
  1 & 2 & 3 & 4 &  1 & 2 & 3 & 4 &  1 & 2 & 3 & 4 &  1 & 2 & 3 & 4 &

CHORUS
G |-----------------|-----------------|-----------------|-----------------|
D |-4-4444-4-4444---|-7-7777----------|-4-4444-4-4444---|-7-7777----------|
A |-----------------|--------7-7777---|-----------------|--------7-7777---|
E |-----------------|-----------------|-----------------|-----------------|
  1 & 2 & 3 & 4 &  1 & 2 & 3 & 4 &  1 & 2 & 3 & 4 &  1 & 2 & 3 & 4 &
G |-----------------|-----------------|-----------------|-----------------|
D |-4-4444-4-4444---|-7-7777----------|-4-4444-4-4444---|-7-7777----------|
A |-----------------|--------7-7777---|-----------------|--------7-7777---|
E |-----------------|-----------------|-----------------|-----------------|
  1 & 2 & 3 & 4 &  1 & 2 & 3 & 4 &  1 & 2 & 3 & 4 &  1 & 2 & 3 & 4 &


VERSE 2

G |---------4----2-4|-----------------|---------4--2-7<-|-----------------|
D |----2-3-5---4----|-----------------|----2-3-5--------|-----------------|
A |-3-3------2------|-----------------|-3-3------2------|-----------------|
E |-----------------|-2-2-2-2-2-2-2-2-|-----------------|-2-2-2-2-2-2-2-2-|
  1 & 2 & 3 & 4 &  1 & 2 & 3 & 4 &  1 & 2 & 3 & 4 &  1 & 2 & 3 & 4 &
G |---------4--79119|-----------------|---------4--42---|-----------------|
D |----2-3-5--9-----|-----------------|----2-3-5-----54-|-----------------|
A |-3-3------2=-----|-----------------|-3-3------2------|-----------------|
E |-----------------|-2-2-2-2-2-2-2-2-|-----------------|-2-2-2-2-2-2-2-5-|
  1 & 2 & 3 & 4 &  1 & 2 & 3 & 4 &  1 & 2 & 3 & 4 &  1 & 2 & 3 & 4 &


CHORUS
G |-----------------|-----------------|-----------------|-----------------|
D |-4-4444-4-4444---|-7-7777----------|-4-4444-4-4444---|-7-7777----------|
A |-----------------|--------7-7777---|-----------------|--------7-7777---|
E |-----------------|-----------------|-----------------|-----------------|
  1 & 2 & 3 & 4 &  1 & 2 & 3 & 4 &  1 & 2 & 3 & 4 &  1 & 2 & 3 & 4 &
G |-----------------|-----------------|-----------------|---------999-9---|
D |-4-4444-4-4444---|-7-7777----------|-4-4444-4-4444---|-7-7777----------|
A |-----------------|--------7-7777---|-----------------|-----------------|
E |-----------------|-----------------|-----------------|-----------------|
  1 & 2 & 3 & 4 &  1 & 2 & 3 & 4 &  1 & 2 & 3 & 4 &  1 & 2 & 3 & 4 &

INTERLUDE   Cant fit all notes in/
G |-----------------|--------9-11911911-6-2-----------98|--------6999996--|
D |-------------91111-----------------|-----4-/-7-6-----|---------------7-|
A |-----------------|-----------------|------------7-6--|----------------99
E |-2-2-2-2-2-2-----|-2-2-2-2---------|/-2-2-2-2--------|-2-2-2-2---------|
  1 & 2 & 3 & 4 &  1 & 2 & 3 & 4 &  1 & 2 & 3 & 4 &  1 & 2 & 3 & 4 &
Bass is really quiet in this bit
G |-----------------|-----------------|-----------------|-----------------|
D |-4---4---4---4---|-7--7------------|-4---4---4---4---|-7---7-----------|
A |-----------------|---------7---7---|-----------------|---------7---7---|
E |-----------------|-----------------|-----------------|-----------------|
  1 & 2 & 3 & 4 &  1 & 2 & 3 & 4 &  1 & 2 & 3 & 4 &  1 & 2 & 3 & 4 &
G |-----------------|-----------------|-----------------|-----------------|
D |-4---4---4---4---|-7--7------------|-4---4---4---4---|-7---7-----------|
A |-----------------|---------7---7---|-----------------|---------7---7---|
E |-----------------|-----------------|-----------------|-----------------|
  1 & 2 & 3 & 4 &  1 & 2 & 3 & 4 &  1 & 2 & 3 & 4 &  1 & 2 & 3 & 4 &
Bass is louder in this bit
G |-----------------|-----------------|-----------------|-----------------|
D |-4-4444-4-4444---|-7-7777----------|-4-4444-4-4444---|-7-7777----------|
A |-----------------|--------7-7777---|-----------------|--------7-7777---|
E |-----------------|-----------------|-----------------|-----------------|
  1 & 2 & 3 & 4 &  1 & 2 & 3 & 4 &  1 & 2 & 3 & 4 &  1 & 2 & 3 & 4 &
G |-----------------|-----------------|-----------------|---------999-9---|
D |-4-4444-4-4444---|-7-7777----------|-4-4444-4-4444---|-7-7777----------|
A |-----------------|--------7-7777---|-----------------|-----------------|
E |-----------------|-----------------|-----------------|-----------------|
  1 & 2 & 3 & 4 &  1 & 2 & 3 & 4 &  1 & 2 & 3 & 4 &  1 & 2 & 3 & 4 &
G |-----------------|------1111111311-|-----------------|-------14131113119119|
D |-----------------|-----------------|-----------------|------0----------|
A |-5-5-5>125-5-7-5-|-----------------|-5-5-5----5-5-7-5|-----------------|
E |-----------------|-2-2-2----------2|-------7-5-------|-2-2-2-----------|
  1 & 2 & 3 & 4 &  1 & 2 & 3 & 4 &  1 & 2 & 3 & 4 &  1 & 2 & 3 & 4 &

G |-----------------|-------0-14------|-----------------|-----------------|
D |-----------------|-----------------|-------7---------|-----------------|
A |-5-5-5-4-5-5-7-5-|-----------------|-5-5-5---5-5-7-5-|-4---2-----------|
E |-----------------|-2-2-2-----------|-----------------|---------5-----2-|
  1 & 2 & 3 & 4 &  1 & 2 & 3 & 4 &  1 & 2 & 3 & 4 &  1 & 2 & 3 & 4 &


CHORUS
G |-----------------|-----------------|-----------------|-----------------|
D |-4-4444-4-4444---|-7-7777----------|-4-4444-4-4444---|-7-7777----------|
A |-----------------|--------7-7777---|-----------------|--------7-7777---|
E |-----------------|-----------------|-----------------|-----------------|
  1 & 2 & 3 & 4 &  1 & 2 & 3 & 4 &  1 & 2 & 3 & 4 &  1 & 2 & 3 & 4 &
G |-----------------|-----------------|-----------------|---------999-9---|
D |-4-4444-4-4444---|-7-7777----------|-4-4444-4-4444---|-7-7777----------|
A |-----------------|--------7-7777---|-----------------|-----------------|
E |-----------------|-----------------|-----------------|-----------------|
  1 & 2 & 3 & 4 &  1 & 2 & 3 & 4 &  1 & 2 & 3 & 4 &  1 & 2 & 3 & 4 &
Repeat to play out

Almost there ...

Sign in to get your own page with links to favourite songs and more. You are just one click away...

Login with Facebook Login with Google