Log in

One click and you are in

Login with Facebook Login with Google

Why sign up and log in

Guitar Tabs Explorer
Blondie bass tabs for Tide is high

Bass tabs

------------------------------------------------------------------------------
			   THE TIDE IS HIGH - Blondie
------------------------------------------------------------------------------

Tabbed By : Starbeat
e-mail : j_starbeat@yahoo.com
Tuning : Standard

	Intro :

G|---------------------------------------|----------------------------------|
D|-------4------4------------------------|-------4----4---------------------|
A|---222---2-22---2----------2------1-4--|---222--2-22--2---4-4-------------|
E|------------------0-00---4---2-22------|----------------------2-2---------|

G|---------------------------------------|----------------------------------|
D|-------4------4------------------------|-------4----4---------4-4---------|
A|---222---2-22---2----------2------1-4--|---222--2-22--2---4-4-------------|
E|------------------0-00---4---2-22------|----------------------------------|

G|---------------------------------------|----------------------------------|
D|--------4------4-----------------------|------4------4--------------------|
A|---2222--2-22---2----------2------1-4--|--2222--2-22--2---------2-----1-4-|
E|------------------0-00---4---2-22------|----------------0-00--4---2-22----|

    Verse:
  The tide is high but...
G|---------------------------------------|----------------------------------|
D|------4----4---------------------------|------4----4----------------------|
A|---22----22-----------2-----1-4--------|---22----22-----------2-----1-4---|
E|-------2-----2—0-0-4----2-2------------|-------2-----2-0-0-4----2-2-------|

  I’m not the kind of girl...
G|----------------------1-4--------------|----------------------------------|
D|------1-4----1-4--22-------44----------|----------------------------------|
A|---22-----22------------------4--------|--22-------22----------------1-4--|
E|--------------------------------2------|------4-2-----4-2---0-0-4-22------|

  It’s not the things you do...
G|---------------------------------------|----------------------------------|
D|---------------------------------------|----------------------------------|
A|---2222-2-----------2---1-4------------|---2222-2-----------2---1-4-------|
E|-----------4-2-00-4---22---------------|-----------4-2-00-4---22----------|

  But it's the way you...              I’m not the kind of girl...
G|---------------------------------------|---------------------1-4----------|
D|---------------------------------------|------1-4----1-4--22------44------|
A|---2222-2-----------2---1-4------------|---22-----22-----------------4----|
E|-----------4-2-00-4---22---------------|-------------------------------2--|

G|----------------------------------|
D|----------------------------------|
A|--22-------22----------------1-4--|
E|------4-2-----4-2---0-0-4-22------|


  The tide is high but...
G|---------------------------------------|----------------------------------|
D|------4----4---------------------------|------4----4----------------------|
A|---22----22-----------2-----1-4--------|---22----22-----------2-----1-4---|
E|-------2-----2—0-0-4----2-2------------|-------2-----2-0-0-4----2-2-------|

  Number one, number one...
G|------6-4---6-4----8-6----8-6----------|------6-4---6-4-------------------|
D|---------------------------------------|----------------4-2-1-------------|
A|---------------------------------------|----------------------4-2-1-------|
E|---0------0------2------2--------------|---0-------0----------------4-2---|

  Every girl wants you...
G|---------------------------------------|----------------------------------|
D|---------------------------------------|----------------------------------|
A|---2222-2-----------2---1-4------------|---2222-2-----------2---1-4-------|
E|-----------4-2-00-4---22---------------|-----------4-2-00-4---22----------|

  I’m not the kind of girl...
G|----------------------1-4--------------|----------------------------------|
D|------1-4----1-4--22-------44----------|----------------------------------|
A|---22-----22------------------4--------|--22-------22----------------1-4--|
E|--------------------------------2------|------4-2-----4-2---0-0-4-22------|

  The tide is high but...
G|---------------------------------------|----------------------------------|
D|------4----4---------------------------|------4----4----------------------|
A|---22----22-----------2-----1-4--------|---22----22-----------2-----1-4---|
E|-------2-----2—0-0-4----2-2------------|-------2-----2-0-0-4----2-2-------|

  Number one, number one...
G|------6-4---6-4----8-6----8-6----------|------6-4---6-4-------------------|
D|---------------------------------------|----------------4-2-1-------------|
A|---------------------------------------|----------------------4-2-1-------|
E|---0------0------2------2--------------|---0-------0----------------4-2---|

	Solo :
G|---------------------------------------|----------------------------------|
D|-------4------4------------------------|-------4----4---------------------|
A|---222---2-22---2----------2------1-4--|---222--2-22--2---4-4-------------|
E|------------------0-00---4---2-22------|----------------------2-2---------|

G|---------------------------------------|----------------------------------|
D|-------4------4------------------------|-------4----4---------4-4---------|
A|---222---2-22---2----------2------1-4--|---222--2-22--2---4-4-------------|
E|------------------0-00---4---2-22------|----------------------------------|

    Verse:
  Every girl wants you...
G|---------------------------------------|----------------------------------|
D|---------------------------------------|----------------------------------|
A|---2222-2-----------2---1-4------------|---2222-2-----------2---1-4-------|
E|-----------4-2-00-4---22---------------|-----------4-2-00-4---22----------|

  I’m not the kind of girl...
G|----------------------1-4--------------|----------------------------------|
D|------1-4----1-4--22-------44----------|----------------------------------|
A|---22-----22------------------4--------|--22-------22----------------1-4--|
E|--------------------------------2------|------4-2-----4-2---0-0-4-22------|

  The tide is high but...
G|---------------------------------------|----------------------------------|
D|------4----4---------------------------|------4----4----------------------|
A|---22----22-----------2-----1-4--------|---22----22-----------2-----1-4---|
E|-------2-----2—0-0-4----2-2------------|-------2-----2-0-0-4----2-2-------|

  Number one, number one...
G|------6-4---6-4----8-6----8-6----------|------6-4---6-4----8-6----8-6-----|
D|---------------------------------------|----------------------------------|
A|---------------------------------------|----------------------------------|
E|---0------0------2------2--------------|---0-------0-----2------2---------|

  Number one, number one...
G|------6-4---6-4-----------------------|
D|-----------------4-2-1----------------|
A|-----------------------4-2-1----------|
E|---0------0------------------4-2------|

  The tide is high but... (X4)
G|---------------------------------------|----------------------------------|
D|------4----4---------------------------|------4----4----------------------|
A|---22----22-----------2-----1-4--------|---22----22-----------2-----1-4---|
E|-------2-----2—0-0-4----2-2------------|-------2-----2-0-0-4----2-2-------|

Comments:

I’ve search this bass tab for a long time, and then, I decided to write it on my own... That’s my first one!

Email me if any corrections. Thanks.

| / slide up
| \ slide down
| h hammer-on
| p pull-off
| ~ vibrato
| + harmonic
| x Mute note
ⓘ Bass guitar tab for 'Tide Is High' by Blondie, a new wave band formed in 1974 from New York City, USA. Blondie is known for their happy punk music.

Almost there ...

Sign in to get your own page with links to favourite songs and more. You are just one click away...

Login with Facebook Login with Google