Log in

One click and you are in

Login with Facebook Login with Google

Why sign up and log in

Guitar Tabs Explorer
Blondie bass tabs for Susie and geoffrey

Bass tabs

Tuning: Standard


INTRO

G |-----------7-----|-----------------|-----------------|-----------------|
D |-7-9-7---7---7---|-----------------|-----------------|-----------------|
A |-------9---------|-----------------|-----------------|-----------------|
E |-----------------|-----------------|-----------------|-----------------|
  1 & 2 & 3 & 4 &  1 & 2 & 3 & 4 &  1 & 2 & 3 & 4 &  1 & 2 & 3 & 4 &

VERSE 1

G |-----------------|-----------------|-----------------|-----------------|
D |-----------------|3-3-3---3-3-3-2--|-----------------|------------5-56-|
A |---------------3-|------3----------|3-3-3---3-333----|2-0-2-0---5------|
E |-5-5-5-0-5-5-5---|-----------------|------3----------|--------3--------|
  1 & 2 & 3 & 4 &  1 & 2 & 3 & 4 &  1 & 2 & 3 & 4 &  1 & 2 & 3 & 4 &

G |-----------------|-----------------|-----------------|-----------------|
D |-----------------|3-3-3---3-3-3-2--|-----------------|------------5-56-|
A |---------------3-|------3----------|3-3-3---3-333----|2-0-2-0---5------|
E |-5-5-5-0-5-5-5---|-----------------|------3----------|--------3--------|
  1 & 2 & 3 & 4 &  1 & 2 & 3 & 4 &  1 & 2 & 3 & 4 &  1 & 2 & 3 & 4 &

VERSE 2

G |-----------------|-----------------|-----------------|-----------------|
D |-7-7-7-----------|3-3-3---3-3-3-2--|-----------------|------------5-56-|
A |-------7-------3-|------3----------|3-3-3---3-333----|2-0-2-0---5------|
E |---------5-5-5---|-----------------|------3-----------|-------3--------|
  1 & 2 & 3 & 4 &  1 & 2 & 3 & 4 &  1 & 2 & 3 & 4 &  1 & 2 & 3 & 4 &

G |-----------------|-----------------|-----------------|-----------------|
D |-----------------|3-3-3---3-3-3-2--|-----------------|--------5--------|
A |---------------3-|------3----------|3-3-3---3-333----|2-0-2-0--------2-|
E |-5-5-5-0-5-5-5---|-----------------|------3----------|----------5-3----|
  1 & 2 & 3 & 4 &  1 & 2 & 3 & 4 &  1 & 2 & 3 & 4 &  1 & 2 & 3 & 4 &

CHORUS

G |-----------------|-----------------|-----------------|-----------------|
D |-----------------|-----------------|-----------------|-------5---5-6-7-|
A |-3-33--3-33------|-----------------|5-55-4--44-------|-----5---5-------|
E |-----------------|5-55--5-55-------|-----------------|3-33-------------|
  1 & 2 & 3 & 4 &  1 & 2 & 3 & 4 &  1 & 2 & 3 & 4 &  1 & 2 & 3 & 4 &

VERSE 3
repeat verse 2
repeat chorus twice

VERSE 4 AND OUTRO
moves to a different key

G |-----------------|-----------------|-----------------|-----------------|
D |-----------------|-5-5-5---5-5-5-4-|-----------------|----7-------7-8--|
A |------9-------5--|-------5---------|5-5-5---5-5-5-4--|--7---7---7------|
E |7-7-7---7-7-7----|------=----------|-=====5----------|5-------5--------|
  1 & 2 & 3 & 4 &  1 & 2 & 3 & 4 &  1 & 2 & 3 & 4 &  1 & 2 & 3 & 4 &


G |-----------------|-----------------|---------------14141212111196------|
D |9-9-9------------|5-5-5---5-5-5-4--|-----------------|-----------------|
A |------9-------5--|------5----------|5-5-5---5-5-5-4--|-----------------|
E |--------7-7-7----|-----------------|------5----------|-----------------|
  1 & 2 & 3 & 4 &  1 & 2 & 3 & 4 &  1 & 2 & 3 & 4 &  1 & 2 & 3 & 4 &
play the above two structures for times each as the fourth verse is a long one
it fades out on the vinyl so you can devise what ever ending you wish

ⓘ Bass guitar tab for 'Susie And Geoffrey' by Blondie, a new wave band formed in 1974 from New York City, USA. Blondie is known for their happy punk music.

Almost there ...

Sign in to get your own page with links to favourite songs and more. You are just one click away...

Login with Facebook Login with Google