Log in

One click and you are in

Login with Facebook Login with Google

Why sign up and log in

Guitar Tabs Explorer
Blondie bass tabs for Sound asleep

Bass tabs

std tuning EADG  A lullaby
NO INTRO STRAIGHT IN AT VERSE

VERSE 1
G |-----------------|-----------------|-----------------|-----------------|
D |-----------------|-----------------|-----------------|-----------------|
A |-5-------4-------|-2---------------|-----------------|---------5-------|
E |-----------------|---------5-------|-3-------2-------|-0---------------|
  1 & 2 & 3 & 4 &  1 & 2 & 3 & 4 &  1 & 2 & 3 & 4 &  1 & 2 & 3 & 4 &
G |-----------------|-----------------|-----------------|-----------------|
D |-----------------|-----------------|-----------------|-----------------|
A |-5-------4-------|-2---------------|-----------------|---------5-------|
E |-----------------|---------5-------|-3-------2-------|-0---------------|
  1 & 2 & 3 & 4 &  1 & 2 & 3 & 4 &  1 & 2 & 3 & 4 &  1 & 2 & 3 & 4 &
CHORUS
G |-----------------|-----------------|-----------------|-----------------|
D |-----------------|-----------------|-----------------|-----------------|
A |-5-------4-------|-2-----------2-4-|-5-------4-------|-2-----------2-4-|
E |-----------------|---------5-5-----|-----------------|---------5-5-----|
  1 & 2 & 3 & 4 &  1 & 2 & 3 & 4 &  1 & 2 & 3 & 4 &  1 & 2 & 3 & 4 &

G |-----------------|-----------------|-----------------|-----------------|
D |---------2-------|-4-4-------------|-----------------|-----------------|
A |-5---------------|-----5-----------|--------4--------|-----------------|
E |-----------------|---------3-------|-----------------|-----------------|
  1 & 2 & 3 & 4 &  1 & 2 & 3 & 4 &  1 & 2 & 3 & 4 &  1 & 2 & 3 & 4 &


VERSE 2
G |-----------------|-----------------|-----------------|-----------------|
D |-----------------|-----------------|-----------------|-----------------|
A |-5-------4-------|-2---------------|-----------------|---------5-------|
E |-----------------|---------5-------|-3-------2-------|-0---------------|
  1 & 2 & 3 & 4 &  1 & 2 & 3 & 4 &  1 & 2 & 3 & 4 &  1 & 2 & 3 & 4 &

G |---232-----2642--|-----------------|-----------------|-----------------|
D |--4---4---4------|------4----------|-----------------|-----------------|
A |-5-------4-------|-22-5------------|-----------------|---------5--------|
E |-----------------|---------5-------|-3-------2-------|-0---------------|
  1 & 2 & 3 & 4 &  1 & 2 & 3 & 4 &  1 & 2 & 3 & 4 &  1 & 2 & 3 & 4 &

CHORUS
G |-----------------|-----------------|-----------------|-----------------|
D |-----------------|-----------------|-----------------|-----------------|
A |-5-------4-------|-2-----------2-4-|-5-------4-------|-2-----------2-4-|
E |-----------------|---------5-5-----|-----------------|---------5-5-----|
  1 & 2 & 3 & 4 &  1 & 2 & 3 & 4 &  1 & 2 & 3 & 4 &  1 & 2 & 3 & 4 &

G |-----------------|-----------------|-----------------|-----------------|
D |---------2-------|-4-4-------------|-----------------|-----------------|
A |-5---------------|-----5-----------|---------------4-|-----------------|
E |-----------------|---------3-------|-----------------|-----------------|
  1 & 2 & 3 & 4 &  1 & 2 & 3 & 4 &  1 & 2 & 3 & 4 &  1 & 2 & 3 & 4 &

INTERLUDE
G |-----------------|-----------------|-----------------|-----------------|
D |-----------------|-----------------|-----------------|-----------------|
A |-5-------4-------|-2---------------|-----------------|---------5-------|
E |-----------------|---------5-------|-3-------2-------|-0---------------|
  1 & 2 & 3 & 4 &  1 & 2 & 3 & 4 &  1 & 2 & 3 & 4 &  1 & 2 & 3 & 4 &

G |---232-----2642--|-----------------|-----------------|-----------------|
D |--4---4---4------|------4----------|-----------------|-----------------|
A |-5-------4-------|-22-5------------|-----------------|---------5--------|
E |-----------------|---------5-------|-3-------2-------|-0---------------|
  1 & 2 & 3 & 4 &  1 & 2 & 3 & 4 &  1 & 2 & 3 & 4 &  1 & 2 & 3 & 4 &


CHORUS
G |-----------------|-----------------|-----------------|-----------------|
D |-----------------|-----------------|-----------------|-----------------|
A |-5-------4-------|-2-----------2-4-|-5-------4-------|-2-----------2-4-|
E |-----------------|---------5-5-----|-----------------|---------5-5-----|
  1 & 2 & 3 & 4 &  1 & 2 & 3 & 4 &  1 & 2 & 3 & 4 &  1 & 2 & 3 & 4 &

G |-----------------|-----------------|-----------------|-----------------|
D |---------2-------|-4-4-------------|-----------------|-----------------|
A |-5---------------|-----5-----------|---------------4-|---------5-------|
E |-----------------|---------3-------|-----------------|-----------------|
  1 & 2 & 3 & 4 &  1 & 2 & 3 & 4 &  1 & 2 & 3 & 4 &  1 & 2 & 3 & 4 &


VERSE 3
G |-----------------|-----------------|-----------------|-----------------|
D |-----------------|-----------------|-----------------|-----------------|
A |-5-------4-------|-2---------------|-----------------|---------5-------|
E |-----------------|---------5-------|-3-------2-------|-0---------------|
  1 & 2 & 3 & 4 &  1 & 2 & 3 & 4 &  1 & 2 & 3 & 4 &  1 & 2 & 3 & 4 &
G |-----------------|-----------------|-----------------|-----------------|
D |-----------------|-----------------|-----------------|-----------------|
A |-5-------4-------|-2---------------|-----------------|---------5-------|
E |-----------------|---------5-------|-3-------2-------|-5---------------|
  1 & 2 & 3 & 4 &  1 & 2 & 3 & 4 &  1 & 2 & 3 & 4 &  1 & 2 & 3 & 4 &
ⓘ Bass guitar tab for 'Sound Asleep' by Blondie, a new wave band formed in 1974 from New York City, USA. Blondie is known for their happy punk music.

Almost there ...

Sign in to get your own page with links to favourite songs and more. You are just one click away...

Login with Facebook Login with Google