Log in

One click and you are in

Login with Facebook Login with Google

Why sign up and log in

Guitar Tabs Explorer
Blondie bass tabs for Slow motion

Bass tabs

std tuning

INTRO short drum roll to count in

G |-----------------|-----------------|-----------------|-----------------|
D |-----------------|-----------------|-----------------|-----------------|
A |-----7-5--5-5-5-7|-----------------|-----7-5--5-5-5-7l-----------------|
E |-5-4-------------|-5-4-5-5---------|-5-4-------------|-5-4-5-5---------|
  1 & 2 & 3 & 4 &  1 & 2 & 3 & 4 &  1 & 2 & 3 & 4 &  1 & 2 & 3 & 4 &
VERSE 1 repeat this section two times

G |----2-22---------|2-22-------------|----2-22---------|2-22-------------|
D |--------5-55-5-55|----3-33---------|--------5-55-5 55l----3-33---------|
A |3-33-------------|--------3-33-----|3-33-------------|--------3-33-----|
E |-----------------|------------3-33-|-----------------|------------3-33-|
  1 & 2 & 3 & 4 &  1 & 2 & 3 & 4 &  1 & 2 & 3 & 4 &  1 & 2 & 3 & 4 &


CHORUS repeat this section two times

G |-----------------|-----------------|-----------------|-----------------|
D |-----------------|-----------------|-----------------|-----------------|
A |-2-2-----2-2-----|-2-2-----2-2-----|-3-3-3-3-3-3-3-3-|-5555555555555555|
E |----0-2-3---0-2-3|----0-2-3---0-2-3|-----------------|-----------------|
  1 & 2 & 3 & 4 &  1 & 2 & 3 & 4 &  1 & 2 & 3 & 4 &  1 & 2 & 3 & 4 &


VERSE 2 s verse 1


CHORUS play once only

G |-----------------|-----------------|-----------------|-----------------|
D |-----------------|-----------------|-----------------|-----------------|
A |-2-2-----2-2-----|-2-2-----2-2-----|-3-3-3-3-3-3-3-3-|-5555555555555555|
E |----0-2-3---0-2-3|----0-2-3---0-2-3|-----------------|-----------------|
  1 & 2 & 3 & 4 &  1 & 2 & 3 & 4 &  1 & 2 & 3 & 4 &  1 & 2 & 3 & 4 &
FILL + BRIDGE

G |-----------------|7-6----------7677|5-4---------5455-|7-6----------7677|
D |-----------------|----9-7-777-9----|---7-5-555-7-----|----9-7-777-9----|
A |-3-3-3-3-3-3-3-3-|-----------------|-----------------|-----------------|
E |-----------------|-----------------|-----------------|-----------------|
  1 & 2 & 3 & 4 &  1 & 2 & 3 & 4 &  1 & 2 & 3 & 4 &  1 & 2 & 3 & 4 &

G |5-4---------5455-|7-6---------7677-|-----------------|-----------------|
D |---7-5-555-7-----|---9-7-777-9-----|-----------------|-----------------|
A |-----------------|-----------------|-----------------|-----------------|
E |-----------------|-----------------|-----------------|-----------------|
  1 & 2 & 3 & 4 &  1 & 2 & 3 & 4 &  1 & 2 & 3 & 4 &  1 & 2 & 3 & 4 &
REPEAT VERSE SECTION UNTIL END

ⓘ Bass guitar tab for 'Slow Motion' by Blondie, a new wave band formed in 1974 from New York City, USA. Blondie is known for their happy punk music.

Almost there ...

Sign in to get your own page with links to favourite songs and more. You are just one click away...

Login with Facebook Login with Google