Log in

One click and you are in

Login with Facebook Login with Google

Why sign up and log in

Guitar Tabs Explorer
Blondie bass tabs for Scenery

Bass tabs

std tuning


INTRO
G |-----------------|-----------------|-----------------|-7-7-6-6-4-4-----|
D |-----------------|-----------------|-----------------|-------------7-7-|
A |-----REST--------|---REST----------|----REST---------|-----------------|
E |-----------------|-----------------|-----------------|-----------------|
  1 & 2 & 3 & 4 &  1 & 2 & 3 & 4 &  1 & 2 & 3 & 4 &  1 & 2 & 3 & 4 &
VERSE 1
G |-----------------|-----------------|-----------------|-----------------|
D |-----------------|----------4------|-----------------|----------4------|
A |-5-55---------5-55-----754---754---|-5-55---------5-55-----754---754---|
E |-----5-55-3-33---|5-5-5---55-------|-----5-55-3-33---|5-5-5---55-------|
  1 & 2 & 3 & 4 &  1 & 2 & 3 & 4 &  1 & 2 & 3 & 4 &  1 & 2 & 3 & 4 &
G |-----------------|-----------------|-----------------|-----------------|
D |-------45-55554--|---77--77--77--77|-------45-55554--|---77--77--77--77|
A |-5-5-57--------75l-----------------|-5-5-57--------75|-----------------|
E |-----------------|-55--55--55--55--|-----------------|-55--55--55--55--|
  1 & 2 & 3 & 4 &  1 & 2 & 3 & 4 &  1 & 2 & 3 & 4 &  1 & 2 & 3 & 4 &

FILL
G |-----------------|-----------------|-----------------|-----------------|
D |---------5-4-----|----------4------|-----------------|-----------------|
A |-5-4----5---7-5-75----754-----754--|-----------------|-----------------|
E |----75-7----------5-5-----55-------|-----------------|-----------------|
  1 & 2 & 3 & 4 &  1 & 2 & 3 & 4 &  1 & 2 & 3 & 4 &  1 & 2 & 3 & 4 &


VERSE 2
G |-----------------|-----------------|-----------------|-----------------|
D |-------45-55554--|---77--77--77--77|-------45-55554--|---77--77--77--77|
A |-5-5-57--------75l-----------------|-5-5-57--------75|-----------------|
E |-----------------|-55--55--55--55--|-----------------|-55--55--55--55--|
  1 & 2 & 3 & 4 &  1 & 2 & 3 & 4 &  1 & 2 & 3 & 4 &  1 & 2 & 3 & 4 &
G |-----------------|-----------------|-----------------|-----------------|
D |-------45-55554--|---77--77--77--77|-------45-55554--|---77--77--77--77|
A |-5-5-57--------75l-----------------|-5-5-57--------75|-----------------|
E |-----------------|-55--55--55--55--|-----------------|-55--55--55--55--|
  1 & 2 & 3 & 4 &  1 & 2 & 3 & 4 &  1 & 2 & 3 & 4 &  1 & 2 & 3 & 4 &

CHORUS sounds out of tune but that's the way it is
G |-----------------|-----------------|-----------------|-----------------|
D |-----------------|-----------------|-----------------|-----------------|
A |-4-4-9-----------|-5-5-7-5-4-5-4---|-----97------97--|-5-555---4-333---|
E |---------7-7-7-5-|---------------7-5-7-77--957-77--95|-----------------|
  1 & 2 & 3 & 4 &  1 & 2 & 3 & 4 &  1 & 2 & 3 & 4 &  1 & 2 & 3 & 4 &
G |-1111101088------|-88--------------|-----------4-----|-----------------|
D |-----------1111--|---11119988------|----------4-4----|--------4--------|
A |-----------------|------------5-5-5|7-5-4-4--2-------|-754------754----|
E |-----------------|-----------------|--------------5-5-5----5-5---------|
  1 & 2 & 3 & 4 &  1 & 2 & 3 & 4 &  1 & 2 & 3 & 4 &  1 & 2 & 3 & 4 &

FILL
G |-----------------|-----------------|-----------------|-----------------|
D |---------5-4-----|----------4------|---------5-4-----|----9797-779797--|
A |-5-4----5---7-5-75----754-----754--|-5-4----5---7-5-75-----------------|
E |----75-7----------5-5-----55-------|----75-7---------|5-5--------------|
  1 & 2 & 3 & 4 &  1 & 2 & 3 & 4 &  1 & 2 & 3 & 4 &  1 & 2 & 3 & 4 &


VERSE 3
G |-----------------|-----------------|-----------------|-----------------|
D |-------45-55554--|---9797-77-9797--|-------45-55554--|---979-77--9777--|
A |-5-5-57--------75l-----------------|-5-5-57--------75|-----------------|
E |-----------------|-55--------------|-----------------|-55--------------|
  1 & 2 & 3 & 4 &  1 & 2 & 3 & 4 &  1 & 2 & 3 & 4 &  1 & 2 & 3 & 4 &
G |-----------------|-----------------|-----------------|-----------------|
D |-------45-55554--|---9797-77-9797--|-------45-55554--|---9797-77--9797-|
A |-5-5-57--------75l-----------------|-5-5-57--------75|-----------------|
E |-----------------|-55--------------|-----------------|-55--------------|
  1 & 2 & 3 & 4 &  1 & 2 & 3 & 4 &  1 & 2 & 3 & 4 &  1 & 2 & 3 & 4 &


CHORUS sounds out of tune but that's the way it is
G |-----------------|-----------------|-----------------|-----------------|
D |-----------------|-----------------|-----------------|-----------------|
A |-4-4-9-----------|-5-5-7-5-4-5-4---|-----97------97--|-5-555---4-333---|
E |---------7-7-7-5-|---------------7-5-7-77--957-77--95|-----------------|
  1 & 2 & 3 & 4 &  1 & 2 & 3 & 4 &  1 & 2 & 3 & 4 &  1 & 2 & 3 & 4 &
G |-1111101088------|-88--------------|-----------4-----|-----------------|
D |-----------1111--|---11119988------|----------4-4----|--------4--------|
A |-----------------|------------5-5-5|7-5-4-4--2-------|-754------754----|
E |-----------------|-----------------|--------------5-5-5----5-5---------|
  1 & 2 & 3 & 4 &  1 & 2 & 3 & 4 &  1 & 2 & 3 & 4 &  1 & 2 & 3 & 4 &

FILL
G |-----------------|-----------------|-----------------|-----------------|
D |---------5-4-----|----------4------|---------5-4-----|----9797-779797--|
A |-5-4----5---7-5-75----754-----754--|-5-4----5---7-5-75-----------------|
E |----75-7----------5-5-----55-------|----75-7---------|5-5--------------|
  1 & 2 & 3 & 4 &  1 & 2 & 3 & 4 &  1 & 2 & 3 & 4 &  1 & 2 & 3 & 4 &


ENDING
G |-----------------|-----------------|-----------------|-----------------|
D |---------5-4-----|----------4------|---------5-4-----|-5-4-------4-7---|
A |-5-4----5---7-5-75----754-----754--|-5-4----5---7-5-75-----7-5-7-------|
E |----75-7----------5-5-----55-------|----75-7---------|-----------------|
  1 & 2 & 3 & 4 &  1 & 2 & 3 & 4 &  1 & 2 & 3 & 4 &  1 & 2 & 3 & 4 &
ⓘ Bass guitar tab for 'Scenery' by Blondie, a new wave band formed in 1974 from New York City, USA. Blondie is known for their happy punk music.

Almost there ...

Sign in to get your own page with links to favourite songs and more. You are just one click away...

Login with Facebook Login with Google