Log in

One click and you are in

Login with Facebook Login with Google

Why sign up and log in

Guitar Tabs Explorer
Blondie bass tabs for Rip her to shreds

Bass tabs

std tuning
not overly sure about intro but it is something like this
play this bit twice

G |9--7----7---7----|-----------------|-----------------|-----------------|
D |--9-7-9--7-9-9---|-----------------|-----------------|-----------------|
A |-7---------------|-----------------|-----------------|-----------------|
E |-----------------|-----------------|-----------------|-----------------|
  1 & 2 & 3 & 4 &  1 & 2 & 3 & 4 &  1 & 2 & 3 & 4 &  1 & 2 & 3 & 4 &
followed by
G |-----------------|-----------------|-----------------|-------9-7-------|
D |-----------------|-----------------|-----------------|----------9------|
A |7 7 7 7 7 7 7 7--|7 7 7 7 7 7 7 7--l7 7 7 7 7 7 7 7--|---5-------------|
E |-----------------|-----------------|-----------------|-7---7-----------|
  1 & 2 & 3 & 4 &  1 & 2 & 3 & 4 &  1 & 2 & 3 & 4 &  1 & 2 & 3 & 4 &

verse
G |-----------------|-----------------|-----------------|-----------------|
D |-----------------|7 7 7 7 7 7 7 7--|-----------------|7 7 7 7 7 7 7 7--|
A |-7 7 7 7 7 7 7 7-|-----------------|7 7 7 7 7 7 7 7--|-----------------|
E |-----------------|-----------------|-----------------|-----------------|
  1 & 2 & 3 & 4 &  1 & 2 & 3 & 4 &  1 & 2 & 3 & 4 &  1 & 2 & 3 & 4 &

G |-----------------|-----------------|-----------------|-----------------|
D |-----------------|7 7 7 7 7 7 7 7--|-----------------|-----------------|
A |-9 9 9 9 9 9 9 9-|-----------------|7 7 7 7 7 7 7 7 -|7 7 7 7 7 7 7 7--|
E |-----------------|-----------------|-----------------|-----------------|
  1 & 2 & 3 & 4 &  1 & 2 & 3 & 4 &  1 & 2 & 3 & 4 &  1 & 2 & 3 & 4 &

chorus
play this bit three times
G |-----------------|-----------------|-----------------|-----------------|
D |--------7 7 7----|-----------------|-----------------|-----------------|
A |-9 9 9 9-----7 7 7 7 7 7 7 7-------|-----------------|-----------------|
E |-----------------|-----------------|-----------------|-----------------|
  1 & 2 & 3 & 4 &  1 & 2 & 3 & 4 &  1 & 2 & 3 & 4 &  1 & 2 & 3 & 4 &
then this bit
G |-----------------|-----------------|-----------------|-----------------|
D |-----------------|9 9 9 9 9 9 9 9--|-----------------|-----------------|
A |-9 9 9 9-9-9 9 9-|-----------------|-----------------|-----------------|
E |-----------------|-----------------|-----------------|-----------------|
  1 & 2 & 3 & 4 &  1 & 2 & 3 & 4 &  1 & 2 & 3 & 4 &  1 & 2 & 3 & 4 &
play this bit twice
G |-----------------|-----------------|-----------------|-----------------|
D |-----------------|-----------------|-----------------|-----------------|
A |-----------------|-----9 7 6-------|-----------------|-----------------|
E |--5 5 5 5 5 5 7 7 7 7 7------------|-----------------|-----------------|
  1 & 2 & 3 & 4 &  1 & 2 & 3 & 4 &  1 & 2 & 3 & 4 &  1 & 2 & 3 & 4 &
repeat intro riff
repeat verse
repeat chorus

guitar bit
G |-----------------|-----------------|-----------------|-----------------|
D |-----------------|7 7 7 7 7 7 7----|-----------------|-----------------|
A |-7 7 7 7 7 7-----|-----------------|-----------------|-----------------|
E |-----------------|-----------------|-----------------|-----------------|
  1 & 2 & 3 & 4 &  1 & 2 & 3 & 4 &  1 & 2 & 3 & 4 &  1 & 2 & 3 & 4 &
repeat chorus
repeat intro
play out to this riff

G |-----------------|-----------------|-----------------|-----------------|
D |-----------------|7 7 7 7 7 7------|-----------------|-----------------|
A |7 7 7 7 7 7------|-----------------|-----------------|-----------------|
E |-----------------|-----------------|-----------------|-----------------|
  1 & 2 & 3 & 4 &  1 & 2 & 3 & 4 &  1 & 2 & 3 & 4 &  1 & 2 & 3 & 4 &
will come back to it later to do the finiky bits but hope this sets you on your way

ⓘ Bass guitar tab for 'Rip Her To Shreds' by Blondie, a new wave band formed in 1974 from New York City, USA. Blondie is known for their happy punk music.

Almost there ...

Sign in to get your own page with links to favourite songs and more. You are just one click away...

Login with Facebook Login with Google