Log in

One click and you are in

Login with Facebook Login with Google

Why sign up and log in

Guitar Tabs Explorer
Blondie bass tabs for Picture this

Bass tabs

Tuning: Standard


INTRO
G |-----------------|-----------2---5-|-----------------|-----------2---5-|
D |-----------2---5-|-3-------3---3---|-----------2---5-|-3-------3---3---|
A |-3-------3---3---|-----------------|-3-------3---3---|-----------------|
E |-----------------|-----------------|-----------------|-----------------|
  1 & 2 & 3 & 4 &  1 & 2 & 3 & 4 &  1 & 2 & 3 & 4 &  1 & 2 & 3 & 4 &

G |-----------------|-----------2---5-|-----------2---5-|-----------------|
D |-----------2---5-|-3-------3---3---|-3-------3---3---|-6----6-6------6-|
A |-3-------3---3---|-----------------|-----------------|------------6----|
E |-----------------|-----------------|-----------------|-----------------|
  1 & 2 & 3 & 4 &  1 & 2 & 3 & 4 &  1 & 2 & 3 & 4 &  1 & 2 & 3 & 4 &

G |-----------------|---5-5-----------|-----------------|-----------------|
D |---6-5-3---------|-5-----5---------|-----------------|-----------------|
A |-6-------6-3-----|-----------3-----|-----------------|-----------------|
E |-----------------|-----------------|-----------------|-----------------|
  1 & 2 & 3 & 4 &  1 & 2 & 3 & 4 &  1 & 2 & 3 & 4 &  1 & 2 & 3 & 4 &


VERSE 1
G |-----------------|-----------2---5-|-----------------|-----------2---5-|
D |-----------2---5-|-3-------3---3---|-----------2---5-|-3-------3---3---|
A |-3-------3---3---|-----------------|-3-------3---3---|-----------------|
E |-----------------|-----------------|-----------------|-----------------|
  1 & 2 & 3 & 4 &  1 & 2 & 3 & 4 &  1 & 2 & 3 & 4 &  1 & 2 & 3 & 4 &

G |-----------------|-----------2---5-|-----------2---5-|-----------------|
D |-----------2---5-|-3-------3---3---|-3-------3---3---|-6----6-6------6-|
A |-3-------3---3---|-----------------|-----------------|------------6----|
E |-----------------|-----------------|-----------------|-----------------|
  1 & 2 & 3 & 4 &  1 & 2 & 3 & 4 &  1 & 2 & 3 & 4 &  1 & 2 & 3 & 4 &

G |-----------------|---5-5-----------|-----------------|-----------------|
D |---6-5-3---------|-5-----5---------|-----------------|-----------------|
A |-6-------6-3-----|-----------3-----|-----------------|-----------------|
E |-----------------|-----------------|-----------------|-----------------|
  1 & 2 & 3 & 4 &  1 & 2 & 3 & 4 &  1 & 2 & 3 & 4 &  1 & 2 & 3 & 4 &


VERSE 2
G |-----------------|-----------2---5-|-----------------|-----------2---5-|
D |-----------2---5-|-3-------3---3---|-----------2---5-|-3-------3---3---|
A |-3-------3---3---|-----------------|-3-------3---3---|-----------------|
E |-----------------|-----------------|-----------------|-----------------|
  1 & 2 & 3 & 4 &  1 & 2 & 3 & 4 &  1 & 2 & 3 & 4 &  1 & 2 & 3 & 4 &

G |-----------------|-----------2---5-|-----------------|-----------------|
D |-----------2---5-|-3-------3---3---|-----------2---2-|-----------------|
A |-3-------3---3---|-----------------|-3-------3---3---|-----2---5---2---|
E |-----------------|-----------------|-----------------|-3---------------|
  1 & 2 & 3 & 4 &  1 & 2 & 3 & 4 &  1 & 2 & 3 & 4 &  1 & 2 & 3 & 4 &


VERSE 3
G |-----------------|-----------2---5-|-----------------|-----------2---5-|
D |-----------2---5-|-3-------3---3---|-----------2---5-|-3-------3---3---|
A |-3-------3---3---|-----------------|-3-------3---3---|-----------------|
E |-----------------|-----------------|-----------------|-----------------|
  1 & 2 & 3 & 4 &  1 & 2 & 3 & 4 &  1 & 2 & 3 & 4 &  1 & 2 & 3 & 4 &

G |-----------------|-----------2---5-|-----------------|-----------------|
D |-----------2---5-|-3-------3---3---|-----------2---2-|-----------------|
A |-3-------3---3---|-----------------|-3-------3---3---|-3---------------|
E |-----------------|-----------------|-----------------|-----6---5---3---|
  1 & 2 & 3 & 4 &  1 & 2 & 3 & 4 &  1 & 2 & 3 & 4 &  1 & 2 & 3 & 4 &


CHORUS
G |-----------------|-----------------|-----------------|-----------------|
D |-3-------3-------|-5-------5-2-2---|-3-------3-------|-5-------5-2-2---|
A |-----------5-5-3-|---------------5-|-----------5-5-3-|---------------5-|
E |-----------------|-----------------|-----------------|-----------------|
  1 & 2 & 3 & 4 &  1 & 2 & 3 & 4 &  1 & 2 & 3 & 4 &  1 & 2 & 3 & 4 &

G |-----------------|-----------------|-----------------|-----------------|
D |-3-------3-------|-5-------5-2-2---|-----------------|-----------------|
A |-----------5-5-3-|---------------5-|-----------------|-----------------|
E |-----------------|-----------------|-5-5-5-5-5-5-5-5-|-5-5-5-5-5-5-5-5-|
  1 & 2 & 3 & 4 &  1 & 2 & 3 & 4 &  1 & 2 & 3 & 4 &  1 & 2 & 3 & 4 &

G |-----------------|-----------------|-----------------|-----------------|
D |-3-------3-------|-5-------5-2-2---|-3-------3-------|-5-------5-2-2---|
A |-----------5-5-3-|---------------5-|-----------5-5-3-|---------------5-|
E |-----------------|-----------------|-----------------|-----------------|
  1 & 2 & 3 & 4 &  1 & 2 & 3 & 4 &  1 & 2 & 3 & 4 &  1 & 2 & 3 & 4 &

G |-----------------|-----------------|
D |-3-------3-------|-5-------5-2-2---|
A |-----------5-5-3-|---------------5-|
E |-----------------|-----------------|
  1 & 2 & 3 & 4 &  1 & 2 & 3 & 4 &


MUSIC BIT
G |-----------------|-----------------|-----------------|-----------------|
D |-----------------|-----------------|-----------------|-----------------|
A |-----------4-----|-5-------5-------|-----------4-----|-5-------5-------|
E |-5-------5---5---|-----------2-4---|-5-------5---5---|-----------2-4---|
  1 & 2 & 3 & 4 &  1 & 2 & 3 & 4 &  1 & 2 & 3 & 4 &  1 & 2 & 3 & 4 &

G |-----------------|-----------------|-----------------|-----------------|
D |-----------------|-----------------|-----------------|-----------------|
A |-----------4-----|-5-------5-------|-5-------5-5-----|-5-------5-5-----|
E |-5-------5---5---|-----------2-4---|-------------5---|-------------5---|
  1 & 2 & 3 & 4 &  1 & 2 & 3 & 4 &  1 & 2 & 3 & 4 &  1 & 2 & 3 & 4 &

G |-----------------|-----------------|-----------------|-----------------|
D |-3-------3-3-----|-3-------3-3-----|-5-------5-5-----|-5-------5-5---7-|
A |-------------3---|-------------3---|-------------5---|-------------5---|
E |-----------------|-----------------|-----------------|-----------------|
  1 & 2 & 3 & 4 &  1 & 2 & 3 & 4 &  1 & 2 & 3 & 4 &  1 & 2 & 3 & 4 &


VERSE 4
G |-----------------|-----------2---5-|-----------------|-----------2---5-|
D |-----------2---5-|-3-------3---3---|-----------2---5-|-3-------3---3---|
A |-3-------3---3---|-----------------|-3-------3---3---|-----------------|
E |-----------------|-----------------|-----------------|-----------------|
  1 & 2 & 3 & 4 &  1 & 2 & 3 & 4 &  1 & 2 & 3 & 4 &  1 & 2 & 3 & 4 &

G |-----------------|-----------2---5-|-----------2---5-|-----------------|
D |-----------2---5-|-3-------3---3---|-3-------3---3---|-6----6-6------6-|
A |-3-------3---3---|-----------------|-----------------|------------6----|
E |-----------------|-----------------|-----------------|-----------------|
  1 & 2 & 3 & 4 &  1 & 2 & 3 & 4 &  1 & 2 & 3 & 4 &  1 & 2 & 3 & 4 &


CHORUS + ENDING
G |-----------------|-----------------|-----------------|-----------------|
D |-3-------3-------|-5-------5-2-2---|-3-------3-------|-5-------5-2-2---|
A |-----------5-5-3-|---------------5-|-----------5-5-3-|---------------5-|
E |-----------------|-----------------|-----------------|-----------------|
  1 & 2 & 3 & 4 &  1 & 2 & 3 & 4 &  1 & 2 & 3 & 4 &  1 & 2 & 3 & 4 &

G |---------7-5---7-|---------9-7---9-|-----------------|-----------------|
D |-3---------------|-5---------------|-----------------|-----------------|
A |-----------------|-----------------|-----------------|-----------------|
E |-----------------|-----------------|-5-5-5-5-5-5-5-5-|-5-5-5-5-5-5-5-5-|
  1 & 2 & 3 & 4 &  1 & 2 & 3 & 4 &  1 & 2 & 3 & 4 &  1 & 2 & 3 & 4 &

G |---------7-5---7-|---------9-7---9-|---------7-5---7-|---------9-7---9-|
D |-3---------------|-5---------------|-3---------------|-5---------------|
A |-----------------|-----------------|-----------------|-----------------|
E |-----------------|-----------------|-----------------|-----------------|
  1 & 2 & 3 & 4 &  1 & 2 & 3 & 4 &  1 & 2 & 3 & 4 &  1 & 2 & 3 & 4 &

G |---------7-5---7-|---------9-7---9-|-----------------|-------------------|
D |-3---------------|-5---------------|-----------------|-------------------|
A |-----------------|-----------------|-----------------|-------------------|
E |-----------------|-----------------|-5-5-5-5-5-5-5-5-|-5-5-5-5-5-5-5-5-5-|
  1 & 2 & 3 & 4 &  1 & 2 & 3 & 4 &  1 & 2 & 3 & 4 &  1 & 2 & 3 & 4 & 5
ⓘ Bass guitar tab for 'Picture This' by Blondie, a new wave band formed in 1974 from New York City, USA. Blondie is known for their happy punk music.

Almost there ...

Sign in to get your own page with links to favourite songs and more. You are just one click away...

Login with Facebook Login with Google