Log in

One click and you are in

Login with Facebook Login with Google

Why sign up and log in

Guitar Tabs Explorer
Blondie bass tabs for One way or another (Ver. 2)

Bass tabs

Blondie - One way or another


Intro;
4 bars rest, then;
G|----------------|----------------|----------------|----------------|
D|----------------|----------------|----------------|----------------|
A|2---------------|----------------|2-2-2-2-2-2-2-2-|2-2-2-2-2-2-2-2-|
E|----------------|----------------|----------------|----------------|

followed by verse riff;
G|----------------|----------------|----------------|----------------|
D|----------------|----------------|----------------|----------------|
A|5-----5---------|5-----5---------|5-----5---------|5-----5---4---3-|
E|--------5-----5-|--------5-----5-|--------5-----5-|--------5-------|

G|----------------|----------------|----------------|----------------|
D|----------------|----------------|----------------|----------------|
A|2-----2---------|2-----2---------|2-----2---------|2-----2---3---4-|
E|--------2-----2-|--------2-----2-|--------2-----2-|--------2-------|


Verse1; play verse riff 2x, then;
G|----------------|----------------|----------------|----------------|
D|5-----5-----5---|9-----9-----9---|7-----7-----7---|4-----4-----4---|
A|--------5-------|--------9-------|--------7-------|--------4-------|
E|----------------|----------------|----------------|----------------| 2x

G|----------------|----------------|----------------|----------------|
D|5-----7-----9---|----------------|----------------|----------------|
A|----------------|7---------------|9---------------|----------------|
E|----------------|----------------|----------------|----------------|


Verse2; play as Verse1

Break; 2 bars rest, then;
G|----------------|----------------|----------------|----------------|
D|----------------|----------------|----------------|----------------|
A|----------------|--------------0-|--0-0-----0---4-|--4-4-----4-----|
E|2---2-----2---2-|2---2-----2-----|----------------|--------------2-|

G|----------------|----------------|----------------|----------------|
D|----------------|----------------|----------------|----------------|
A|----------------|--------------0-|--0-0-----0---4-|--4-4-----4-4-4-|
E|--2-2-----2---2-|--2-2-----2-----|----------------|----------------|

G|----------------|----------------|----------------|----------------|
D|----------------|----------------|----------------|----------------|
A|2-2-2-2---2-----|----------------|----------------|----------------|
E|--------------0-|----0-0-0-0-0-0-|2-2-2-2---2---2-|--2-2---3-3-4-5-|

G|----------------|----------------|----------------|----------------|
D|----------------|----------------|----------------|----------------|
A|----------------|----------------|----------------|----------------|
E|5-5-5-5-5-5-5-5-|5-5-5-5-4-5-6-7-|7-7-7-7-7-7-7-7-|7-7-7-7-7-7-7-7-|


Verse3; play verse riff 2x


Outro
G|----------------|----------------|----------------|----------------|
D|----------------|----------------|----------------|----------------|
A|5-------5-------|5-------5-5-4---|2-------2-------|2-------2-2-3-4-|
E|----5-------5---|----5-----------|----2-------2---|----2-----------| 7x
ⓘ This is the 2nd version of bass guitar tab for 'One Way Or Another' by Blondie, a new wave band formed in 1974 from New York City, USA. Blondie is known for their happy punk music.

Other versions of One Way Or Another

One way or anotherBass tabs

Almost there ...

Sign in to get your own page with links to favourite songs and more. You are just one click away...

Login with Facebook Login with Google