Log in

One click and you are in

Login with Facebook Login with Google

Why sign up and log in

Guitar Tabs Explorer
Blondie bass tabs for Nothing is real but the girl

Nothing Is Real But The Girl bass tab by Blondie

Blondie bass tabs for Nothing is real but the girl

Bass tabs

Intro
G|-----------------|-----------------|-----------------|-----------------|
D|-----------------|-----------------|-----------------|-7-7-5-5---------|
A|-----------------|-----------------|-----------------|---------8-8-7-7-|
E|-5-5-5-5-5-5-5-5-|-5-5-5-5-5-5-5-5-|-5-5-5-5-5-5-5-5-|-----------------|
  1 & 2 & 3 & 4 &  1 & 2 & 3 & 4 &  1 & 2 & 3 & 4 &  1 & 2 & 3 & 4 &
verse 1
G|-----------------|-----------------|-----------------|-----------------|
D|-----------------|---------7-5-----|-----------------|-----------------|
A|-5-5-5-5-5-5-5-5-|-5-5-5-5-----8-7-|-----------------|-----------------|
E|-----------------|-----------------|-6-6-6-6-6-6-6-6-|-6-6-6-6-6-6--5--|
  1 & 2 & 3 & 4 &  1 & 2 & 3 & 4 &  1 & 2 & 3 & 4 &  1 & 2 & 3 & 4 &
G|-----------------|-----------------|-----------------|-----------------|
D|-----------------|-----------------|-----------------|---------7-5-----|
A|-----------------|-----------------|-----------------|-------------8-7-|
E|-1-1-1-1-1-1-1-1-|-3-3-3-3-3-3-3-3-|-5-5-5-5-5-5-5-5-|-5-5-5-5---------|
  1 & 2 & 3 & 4 &  1 & 2 & 3 & 4 &  1 & 2 & 3 & 4 &  1 & 2 & 3 & 4 &
G|-----------------|-----------------|-----------------|-----------------|
D|-----------------|---------7-5-----|-----------------|-----------------|
A|-5-5-5-5-5-5-5-5-|-5-5-5-5-----8-7-|-----------------|-----------------|
E|-----------------|-----------------|-6-6-6-6-6-6-6-6-|-6-6-6-6-6-6--5--|
  1 & 2 & 3 & 4 &  1 & 2 & 3 & 4 &  1 & 2 & 3 & 4 &  1 & 2 & 3 & 4 &
G|-----------------|-----------------|-----------------|-----------------|
D|-----------------|-----------------|-----------------|---------7-5-----|
A|-----------------|-----------------|-----------------|-------------8-7-|
E|-1-1-1-1-1-1-1-1-|-3-3-3-3-3-3-3-3-|-5-5-5-5-5-5-5-5-|-5-5-5-5---------|
  1 & 2 & 3 & 4 &  1 & 2 & 3 & 4 &  1 & 2 & 3 & 4 &  1 & 2 & 3 & 4 &


Chorus
G|-----------------|-----------------|-----------------|-----------------|
D|-----------------|-----------------|-----------------|---------7-5-----|
A|-----------------|-----------------|-5-5-5-5-5-5-5-5-|-5-5-5-5-----8-7-|
E|-6-6-6-6-6-6-6-6-|-5---3---1---0---|-----------------|-----------------|
  1 & 2 & 3 & 4 &  1 & 2 & 3 & 4 &  1 & 2 & 3 & 4 &  1 & 2 & 3 & 4 &
G|-----------------|-----------------|-----------------|-----------------|
D|-----------------|-----------------|-----------------|-----------------|
A|-----------------|-----------------|-5-5-5-5-5-5-5-5-|-5-5-5-5-5---3---|
E|-6-6-6-6-6-6-6-6-|-5---3---1---0---|-----------------|-----------5---5-|
  1 & 2 & 3 & 4 &  1 & 2 & 3 & 4 &  1 & 2 & 3 & 4 &  1 & 2 & 3 & 4 &

verse 2
G|-----------------|-----------------|-----------------|-----------------|
D|-----------------|---------7-5-----|-----------------|-----------------|
A|-5-5-5-5-5-5-5-5-|-5-5-5-5-----8-7-|-----------------|-----------------|
E|-----------------|-----------------|-6-6-6-6-6-6-6-6-|-6-6-6-6-6-6--5--|
  1 & 2 & 3 & 4 &  1 & 2 & 3 & 4 &  1 & 2 & 3 & 4 &  1 & 2 & 3 & 4 &
G|-----------------|-----------------|-----------------|-----------------|
D|-----------------|-----------------|-----------------|---------7-5-----|
A|-----------------|-----------------|-----------------|-------------8-7-|
E|-1-1-1-1-1-1-1-1-|-3-3-3-3-3-3-3-3-|-5-5-5-5-5-5-5-5-|-5-5-5-5---------|
  1 & 2 & 3 & 4 &  1 & 2 & 3 & 4 &  1 & 2 & 3 & 4 &  1 & 2 & 3 & 4 &
G|-----------------|-----------------|-----------------|-----------------|
D|-----------------|---------7-5-----|-----------------|-----------------|
A|-5-5-5-5-5-5-5-5-|-5-5-5-5-----8-7-|-----------------|-----------------|
E|-----------------|-----------------|-6-6-6-6-6-6-6-6-|-6-6-6-6-6-6--5--|
  1 & 2 & 3 & 4 &  1 & 2 & 3 & 4 &  1 & 2 & 3 & 4 &  1 & 2 & 3 & 4 &
G|-----------------|-----------------|-----------------|-----------------|
D|-----------------|-----------------|-----------------|---------7-5-----|
A|-----------------|-----------------|-----------------|-------------8-7-|
E|-1-1-1-1-1-1-1-1-|-3-3-3-3-3-3-3-3-|-5-5-5-5-5-5-5-5-|-5-5-5-5---------|
  1 & 2 & 3 & 4 &  1 & 2 & 3 & 4 &  1 & 2 & 3 & 4 &  1 & 2 & 3 & 4 &


Chorus
G|-----------------|-----------------|-----------------|-----------------|
D|-----------------|-----------------|-----------------|---------7-5-----|
A|-----------------|-----------------|-5-5-5-5-5-5-5-5-|-5-5-5-5-----8-7-|
E|-6-6-6-6-6-6-6-6-|-5---3---1---0---|-----------------|-----------------|
  1 & 2 & 3 & 4 &  1 & 2 & 3 & 4 &  1 & 2 & 3 & 4 &  1 & 2 & 3 & 4 &
G|-----------------|-----------------|-----------------|-----------------|
D|-----------------|-----------------|-----------------|-----------------|
A|-----------------|-----------------|-5-5-5-5-5-5-5-5-|-5-5-5-5-5---3---|
E|-6-6-6-6-6-6-6-6-|-5---3---1---0---|-----------------|-----------5---5-|
  1 & 2 & 3 & 4 &  1 & 2 & 3 & 4 &  1 & 2 & 3 & 4 &  1 & 2 & 3 & 4 &


Chorus
G|-----------------|-----------------|-----------------|-----------------|
D|-----------------|-----------------|-----------------|-----------------|
A|-------------8---|-----------------|-------------8---|-----------------|
E|-6---6---6-------|-8---8---8---3---|-6---6---6-------|-8---8---8---3---|
  1 & 2 & 3 & 4 &  1 & 2 & 3 & 4 &  1 & 2 & 3 & 4 &  1 & 2 & 3 & 4 &
G|-----------------|-----------------|-----------------|-----------------|
D|-----------------|-----------------|-----------------|-----------------|
A|-------------8---|-----------------|-5-5-5-5-5-5-5-5-|-5-5-5-5-8-7-5---|
E|-6---6---6-------|-8---8---8---8---|-----------------|---------------8-|
  1 & 2 & 3 & 4 &  1 & 2 & 3 & 4 &  1 & 2 & 3 & 4 &  1 & 2 & 3 & 4 &
G|-----------------|-----------------|-----------------|-----------------|
D|-----------------|-----------------|-----------------|-----------------|
A|---------------8-|-----------------|---------------8-|-----------------|
E|-6-6-6-6-6-6-6---|-8-8-8-8-8-8-8-8-|-6-6-6-6-6-6-6---|-8-8-8-8-8-8-8-8-|
  1 & 2 & 3 & 4 &  1 & 2 & 3 & 4 &  1 & 2 & 3 & 4 &  1 & 2 & 3 & 4 &
G|-----------------|-----------------|-----------------|-----------------|
D|-----------------|-----------------|-----------------|-----------------|
A|---------------8-|-----------------|-5-5-5-5-5-5-5-5-|-5-5-5-5-5-5-5-5-|
E|-6-6-6-6-6-6-6---|-8-8-8-8-8-8-8-8-|-----------------|-----------------|
  1 & 2 & 3 & 4 &  1 & 2 & 3 & 4 &  1 & 2 & 3 & 4 &  1 & 2 & 3 & 4 &


Bridge
G|-----------------|-----------------|-----------------|-----------------|
D|-----------------|-----------------|-----------------|-7-7-5-5---------|
A|-----------------|-----------------|-----------------|---------8-8-7-7-|
E|-5-5-5-5-5-5-5-5-|-5-5-5-5-5-5-5-5-|-5-5-5-5-5-5-5-5-|-----------------|
  1 & 2 & 3 & 4 &  1 & 2 & 3 & 4 &  1 & 2 & 3 & 4 &  1 & 2 & 3 & 4 &


verse 3
G|-----------------|-----------------|-----------------|-----------------|
D|-----------------|---------7-5-----|-----------------|-----------------|
A|-5-5-5-5-5-5-5-5-|-5-5-5-5-----8-7-|-----------------|-----------------|
E|-----------------|-----------------|-6-6-6-6-6-6-6-6-|-6-6-6-6-6-6--5--|
  1 & 2 & 3 & 4 &  1 & 2 & 3 & 4 &  1 & 2 & 3 & 4 &  1 & 2 & 3 & 4 &
G|-----------------|-----------------|-----------------|-----------------|
D|-----------------|-----------------|-----------------|---------7-5-----|
A|-----------------|-----------------|-----------------|-------------8-7-|
E|-1-1-1-1-1-1-1-1-|-3-3-3-3-3-3-3-3-|-5-5-5-5-5-5-5-5-|-5-5-5-5---------|
  1 & 2 & 3 & 4 &  1 & 2 & 3 & 4 &  1 & 2 & 3 & 4 &  1 & 2 & 3 & 4 &
G|-----------------|-----------------|-----------------|-----------------|
D|-----------------|---------7-5-----|-----------------|-----------------|
A|-5-5-5-5-5-5-5-5-|-5-5-5-5-----8-7-|-----------------|-----------------|
E|-----------------|-----------------|-6-6-6-6-6-6-6-6-|-6-6-6-6-6-6--5--|
  1 & 2 & 3 & 4 &  1 & 2 & 3 & 4 &  1 & 2 & 3 & 4 &  1 & 2 & 3 & 4 &
G|-----------------|-----------------|-----------------|-----------------|
D|-----------------|-----------------|-----------------|---------7-5-----|
A|-----------------|-----------------|-----------------|-------------8-7-|
E|-1-1-1-1-1-1-1-1-|-3-3-3-3-3-3-3-3-|-5-5-5-5-5-5-5-5-|-5-5-5-5---------|
  1 & 2 & 3 & 4 &  1 & 2 & 3 & 4 &  1 & 2 & 3 & 4 &  1 & 2 & 3 & 4 &


Chorus
G|-----------------|-----------------|-----------------|-----------------|
D|-----------------|-----------------|-----------------|---------7-5-----|
A|-----------------|-----------------|-5-5-5-5-5-5-5-5-|-5-5-5-5-----8-7-|
E|-6-6-6-6-6-6-6-6-|-5---3---1---0---|-----------------|-----------------|
  1 & 2 & 3 & 4 &  1 & 2 & 3 & 4 &  1 & 2 & 3 & 4 &  1 & 2 & 3 & 4 &
G|-----------------|-----------------|-----------------|-----------------|
D|-----------------|-----------------|-----------------|-----------------|
A|-----------------|-----------------|-5-5-5-5-5-5-5-5-|-5-5-5-5-5---3---|
E|-6-6-6-6-6-6-6-6-|-5---3---1---0---|-----------------|-----------5---5-|
  1 & 2 & 3 & 4 &  1 & 2 & 3 & 4 &  1 & 2 & 3 & 4 &  1 & 2 & 3 & 4 &
G|-----------------|-----------------|-----------------|-----------------|
D|-----------------|-----------------|-----------------|---------7-5-----|
A|-----------------|-----------------|-5-5-5-5-5-5-5-5-|-5-5-5-5-----8-7-|
E|-6-6-6-6-6-6-6-6-|-5---3---1---0---|-----------------|-----------------|
  1 & 2 & 3 & 4 &  1 & 2 & 3 & 4 &  1 & 2 & 3 & 4 &  1 & 2 & 3 & 4 &
G|-----------------|-----------------|-----------------|-----------------|
D|-----------------|-----------------|-----------------|-----------------|
A|-----------------|-----------------|-5--5-5--5--5-5--l-5--5-5--5--5-5--|
E|-6-6-6-6-6-6-6-6-|-5---3---1---0---|-----------------|-----------------|
  1 & 2 & 3 & 4 &  1 & 2 & 3 & 4 &  1 & 2 & 3 & 4 &  1 & 2 & 3 & 4 &


Outro
G|-----------------|-----------------|-----------------|-----------------|
D|-----------------|-----------------|-----------------|---------7-5-----|
A|-----------------|-----------------|-5-5-5-5-5-5-5-5-|-5-5-5-5-----8-7-|
E|-6-6-6-6-6-6-6-6-|-5---3---1---0---|-----------------|-----------------|
  1 & 2 & 3 & 4 &  1 & 2 & 3 & 4 &  1 & 2 & 3 & 4 &  1 & 2 & 3 & 4 &
G|-----------------|-----------------|-----------------|-----------------|
D|-----------------|-----------------|-----------------|-----------------|
A|-----------------|-----------------|-5-5-5-5-5-5-5-5-|-5-5-5-5-5---3---|
E|-6-6-6-6-6-6-6-6-|-5---3---1---0---|-----------------|-----------5---5-|
  1 & 2 & 3 & 4 &  1 & 2 & 3 & 4 &  1 & 2 & 3 & 4 &  1 & 2 & 3 & 4 &
ⓘ Bass guitar tab for 'Nothing Is Real But The Girl' by Blondie, a new wave band formed in 1974 from New York City, USA. Blondie is known for their happy punk music.

Almost there ...

Sign in to get your own page with links to favourite songs and more. You are just one click away...

Login with Facebook Login with Google