Log in

One click and you are in

Login with Facebook Login with Google

Why sign up and log in

Guitar Tabs Explorer
Blondie bass tabs for My monster

Bass tabs with lyrics

std tuning Not quite sure about this one

INTRO

G |-----------------|-----------------|-----------------|-----------------|
D |-----------------|-----------------|-----------------|-----------------|
A |-----------------|-----------------|-----------------|-----------------|
E |-3-3-3-3-3-3-3-3-|-3-3-3-3-3-3-3-3-|-3-3-3-3-3-3-3-3-|-3-3-3-3-3-3-3-3-|
  1 & 2 & 3 & 4 &  1 & 2 & 3 & 4 &  1 & 2 & 3 & 4 &  1 & 2 & 3 & 4 &

G |-----------------|-----------------|-----------------|-----------------|
D |-----------------|-----------------|-----------------|-----------------|
A |-----------------|-----------------|-----------------|-----------------|
E |-3-3-3-3-3-3-3-3-|-3-3-3-3-3-3-3-3-|-3-3-3-3-3-3-3-3-|-3-3-3-3-3-3-3-3-|
  1 & 2 & 3 & 4 &  1 & 2 & 3 & 4 &  1 & 2 & 3 & 4 &  1 & 2 & 3 & 4 &

VERSE
   human beings are stupid things   when we are young
G |-----------------|-----------------|-----------------|-----------------|
D |-----------------|-3-3-3-3-3-3-3-3-|-----------------|-----------------|
A |-5-5-5-5-5-5-5-5-|-----------------|-3-3-3-3-3-3-3-3-|-3-3-3-3-3-3-3-3-|
E |-----------------|-----------------|-----------------|-----------------|
  1 & 2 & 3 & 4 &  1 & 2 & 3 & 4 &  1 & 2 & 3 & 4 &  1 & 2 & 3 & 4 &

G |-----------------|-----------------|-----------------|-----------------|
D |-----------------|-3-3-3-3-3-3-3-3-|-----------------|-----------------|
A |-5-5-5-5-5-5-5-5-|-----------------|-3-3-3-3-3-3-3-3-|-3-3-3-3-3-3-3-3-|
E |-----------------|-----------------|-----------------|-----------------|
  1 & 2 & 3 & 4 &  1 & 2 & 3 & 4 &  1 & 2 & 3 & 4 &  1 & 2 & 3 & 4 &

G |-----------------|-----------------|-----------------|-----------------|
D |-----------------|-3-3-3-3-3-3-3-3-|-----------------|-----------------|
A |-5-5-5-5-5-5-5-5-|-----------------|-----------------|-----------------|
E |-----------------|-----------------|-3-3-3-3-3-3-3-3-|-3-3-3-3-3-3-3-3-|
  1 & 2 & 3 & 4 &  1 & 2 & 3 & 4 &  1 & 2 & 3 & 4 &  1 & 2 & 3 & 4 &

G |-----------------|-----------------|-----------------|-----------------|
D |-2-2-2-2-2-2-2-2-|-2-2-2-2-2-2-2-2-|-----------------|-----------------|
A |-----------------|-----------------|-----------------|-----------------|
E |-----------------|-----------------|-3-3-3-3-3-3-3-3-|-3-3-3-3-3-3-3-3-|
  1 & 2 & 3 & 4 &  1 & 2 & 3 & 4 &  1 & 2 & 3 & 4 &  1 & 2 & 3 & 4 &

CHORUS 1
repeat this section four times
G |-----------------|-----------------|-----------------|-----------------|
D |-----------------|-3-3-3-3-3-3-3-3-|-----------------|-----------------|
A |-----------------|-----------------|-5-5-5-5-5-5-5-5-|-----------------|
E |-5-5-5-5-5-5-5-5-|-----------------|-----------------|-3-3-3-3-3-3-3-3-|
  1 & 2 & 3 & 4 &  1 & 2 & 3 & 4 &  1 & 2 & 3 & 4 &  1 & 2 & 3 & 4 &

BRIDGE
G |-----------------|-----------------|-----------------|-----------------|
D |-----------------|-----------------|-3----2----------|-----------------|
A |-5-5-5-5-5-5-5-5-|-5-5-5-5-5-5-5-5-|-----------------|-5----3----------|
E |-----------------|-----------------|-----------------|-----------------|
  1 & 2 & 3 & 4 &  1 & 2 & 3 & 4 &  1 & 2 & 3 & 4 &  1 & 2 & 3 & 4 &

VERSE 2
as verse one

CHORUS 2
repeat this section three times
G |-----------------|-----------------|-----------------|-----------------|
D |-----------------|-3-3-3-3-3-3-3-3-|-----------------|-----------------|
A |-----------------|-----------------|-5-5-5-5-5-5-5-5-|-----------------|
E |-5-5-5-5-5-5-5-5-|-----------------|-----------------|-3-3-3-3-3-3-3-3-|
  1 & 2 & 3 & 4 &  1 & 2 & 3 & 4 &  1 & 2 & 3 & 4 &  1 & 2 & 3 & 4 &

BRIDGE
play bridge
SHORT INSTRUMENTAL
G |-----------------|-----------------|-----------------|-----------------|
D |-5-5-5-5-5-5-5-5-|-5-5-5-5-5-5-5-5-|-----------------|-----------------|
A |-----------------|-----------------|-7-7-7-7-7-7-7-7-|-7-7-7-7-7-7-7-7-|
E |-----------------|-----------------|-----------------|-----------------|
  1 & 2 & 3 & 4 &  1 & 2 & 3 & 4 &  1 & 2 & 3 & 4 &  1 & 2 & 3 & 4 &

G |-----------------|-----------------|-----------------|-----------------|
D |-----------------|-----------------|-3---2-----------|-----------------|
A |-5-5-5-5-5-5-5-5-|-5-5-5-5-5-5-5-5-|-----------------|-5----3----------|
E |-----------------|-----------------|-----------------|-----------------|
  1 & 2 & 3 & 4 &  1 & 2 & 3 & 4 &  1 & 2 & 3 & 4 &  1 & 2 & 3 & 4 &

G |-----------------|-----------------|-----------------|-----------------|
D |-----------------|-----------------|-----------------|-----------------|
A |-----------------|-----------------|-----------------|-----------------|
E |-3-3-3-3-3-3-3-3-|-3-3-3-3-3-3-3-3-|-3-3-3-3-3-3-33--|-3-3-3-3-3-3-3-3-|
  1 & 2 & 3 & 4 &  1 & 2 & 3 & 4 &  1 & 2 & 3 & 4 &  1 & 2 & 3 & 4 &

VERSE 3

G |-----------------|-----------------|-----------------|-----------------|
D |-----------------|-3-3-3-3-3-3-3-3-|-----------------|-----------------|
A |-5-5-5-5-5-5-5-5-|-----------------|-3-3-3-3-3-3-3-3-|-3-3-3-3-3-3-3-3-|
E |-----------------|-----------------|-----------------|-----------------|
  1 & 2 & 3 & 4 &  1 & 2 & 3 & 4 &  1 & 2 & 3 & 4 &  1 & 2 & 3 & 4 &

G |-----------------|-----------------|-----------------|-----------------|
D |-----------------|-3-3-3-3-3-3-3-3-|-----------------|-----------------|
A |-5-5-5-5-5-5-5-5-|-----------------|-2-2-2-2-2-2-2-2-l-----------------|
E |-----------------|-----------------|-----------------|-3-3-3-3-3-3-3-3-|
  1 & 2 & 3 & 4 &  1 & 2 & 3 & 4 &  1 & 2 & 3 & 4 &  1 & 2 & 3 & 4 &

G |-----------------|-----------------|-----------------|-----------------|
D |--rest-----------|-----------------|-----------------|-----------------|
A |-----------------|-----------------|-----------------|-----------------|
E |-----------------|-----------------|-----------------|-----------------|
  1 & 2 & 3 & 4 &  1 & 2 & 3 & 4 &  1 & 2 & 3 & 4 &  1 & 2 & 3 & 4 &

G |-----------------|-----------------|-----------------|-----------------|
D |--rest-----------|-----------------|-----------------|-----------------|
A |-----------------|-----------------|-----------------|-----------------|
E |-----------------|-----------------|-----------------|-3-3-3-3-3-3-3-3-|
  1 & 2 & 3 & 4 &  1 & 2 & 3 & 4 &  1 & 2 & 3 & 4 &  1 & 2 & 3 & 4 &

G |-----------------|-----------------|-----------------|-----------------|
D |-----------------|-3-3-3-3-3-3-3-3-|-----------------|-----------------|
A |-----------------|-----------------|-5-5-5-5-5-5-5-5-|-----------------|
E |-5-5-5-5-5-5-5-5-|-----------------|-----------------|-3-3-3-3-3-3-3-3-|
  1 & 2 & 3 & 4 &  1 & 2 & 3 & 4 &  1 & 2 & 3 & 4 &  1 & 2 & 3 & 4 &

G |-----------------|-----------------|-----------------|-----------------|
D |-----------------|-3-3-3-3-3-3-3-3-|-----------------|-----------------|
A |-----------------|-----------------|-5-5-5-5-5-5-5-5-|-----------------|
E |-5-5-5-5-5-5-5-5-|-----------------|-----------------|-3-3-3-3-3-3-3-3-|
  1 & 2 & 3 & 4 &  1 & 2 & 3 & 4 &  1 & 2 & 3 & 4 &  1 & 2 & 3 & 4 &

ENDING
G |-----------------|-----------------|-----------------|-----------------|
D |-----------------|-----------------|-3----2----------|-----------------|
A |-5-5-5-5-5-5-5-5-|-5-5-5-5-5-5-5-5-|-----------------|-5----3----------|
E |-----------------|-----------------|-----------------|-----------------|
  1 & 2 & 3 & 4 &  1 & 2 & 3 & 4 &  1 & 2 & 3 & 4 &  1 & 2 & 3 & 4 &

G |-----------------|-----------------|-----------------|-----------------|
D |-----------------|-----------------|-3----2----------|-----------------|
A |-5-5-5-5-5-5-5-5-|-5-5-5-5-5-5-5-5-|-----------------|-5----3----------|
E |-----------------|-----------------|-----------------|-----------------|
  1 & 2 & 3 & 4 &  1 & 2 & 3 & 4 &  1 & 2 & 3 & 4 &  1 & 2 & 3 & 4 &

G |-----------------|-----------------|-----------------|-----------------|
D |-----------------|-----------------|-----------------|-----------------|
A |-----------------|-----------------|-----------------|-----------------|
E |-33-3-3-33-3-3---|-----------------|-----------------|-----------------|
  1 & 2 & 3 & 4 &  1 & 2 & 3 & 4 &  1 & 2 & 3 & 4 &  1 & 2 & 3 & 4 &

ⓘ Bass guitar tab for 'My Monster' by Blondie, a new wave band formed in 1974 from New York City, USA. Blondie is known for their happy punk music.

Almost there ...

Sign in to get your own page with links to favourite songs and more. You are just one click away...

Login with Facebook Login with Google