Log in

One click and you are in

Login with Facebook Login with Google

Why sign up and log in

Guitar Tabs Explorer
Blondie bass tabs for Mile high

Bass tabs

Tuning: Standard


R = REST
INTRO
G |---------R-------|-------R---------|-------R---------|-------R---------|
D |-----------------|-----------------|-----------------|-----------------|
A |-----------------|-----------------|-----------------|-----------------|
E |-----------------|-----------------|-----------------|-----------------|


G |---------R-------|-------R---------|-------R---------|-------R---------|
D |-----------------|-----------------|-----------------|-----------------|
A |-----------------|-----------------|-----------------|-----------------|
E |-----------------|-----------------|-----------------|-----------------|

my friends told me …...
G |---------R-------|-------R---------|-------R---------|-------R---------|
D |-----------------|-----------------|-----------------|-----------------|
A |-----------------|-----------------|-----------------|-----------------|
E |-----------------|-----------------|-----------------|-----------------|

all I know is I would...…
G |---------R-------|-------R---------|-------R---------|-------R---------|
D |-----------------|-----------------|-----------------|-----------------|
A |-----------------|-----------------|-----------------|-----------------|
E |-----------------|-----------------|-----------------|-----------------|

ho ho ho .....
G |---------R-------|-------R---------|-------R---------|-------R---------|
D |-----------------|-----------------|-----------------|-----------------|
A |-----------------|-----------------|-----------------|-----------------|
E |-----------------|-----------------|-----------------|-----------------|

ho ho ho .....
G |---------R-------|-------R---------|-------R---------|-------R---------|
D |-----------------|-----------------|-----------------|-----------------|
A |-----------------|-----------------|-----------------|-----------------|
E |-----------------|-----------------|-----------------|-----------------|

when you discover
G |--------------------|--------------------|--------------------|-------------------|
D |--------------------|--------------------|-1--1-1-1--1--1-1-1-|-------------------|
A |--------------------|-3--3-3-3--3--3-3-3-|--------------------|-1--1-1-1-3-4-3-1--|
E |-1--1-1-1--1--1-1-1-|--------------------|--------------------|-------------------|

another level
G |--------------------|--------------------|--------------------|-------------------|
D |--------------------|--------------------|-1--1-1-1--1--1-1-1-|-------------------|
A |--------------------|-3--3-3-3--3--3-3-3-|--------------------|-1--1-1-1-3-4-3-1--|
E |-1--1-1-1--1--1-1-1-|--------------------|--------------------|-------------------|

when you discover
G |--------------------|--------------------|--------------------|-------------------|
D |--------------------|--------------------|-1--1-1-1--1--1-1-1-|-------------------|
A |--------------------|-3--3-3-3--3--3-3-3-|--------------------|-1--1-1-1-3-4-3-1--|
E |-1--1-1-1--1--1-1-1-|--------------------|--------------------|-------------------|

another level
G |--------------------|--------------------|--------------------|-------------------|
D |--------------------|--------------------|-1--1-1-1--1--1-1-1-|-------------------|
A |--------------------|-3--3-3-3--3--3-3-3-|--------------------|-1--1-1-1-3-4-3-1--|
E |-1--1-1-1--1--1-1-1-|--------------------|--------------------|-------------------|

FILL
G |--------------------|--------------------|--------------------|--------------------|
D |--------------------|--------------------|--------------------|--------------------|
A |--------------------|--------------------|--------------------|--------------------|
E |-1--1-1-1--1--1-1-1-|-1--1-1-1--1--1-1-1-|-1--1-1-1--1--1-1-1-|-1--1-1-1--1--1-1-1-|

mile high       you and I   between earth and sky ……………...
G |-----------------|-----------------|-----------------|-----------------|
D |-----------------|-----------------|-----------------|-----------------|
A |-----------------|-----------------|-----------------|-----------------|
E |-1---1---1---1---|-1---1---1---1---|-1---1---1---1---|-1---1---1---1---|

G |-----------------|-----------------|-----------------|-----------------|
D |-----------------|-----------------|-----------------|-----------------|
A |-----------------|-----------------|-----------------|-----------------|
E |-1---1---1---1---|-1---1---1---1---|-1---1---1---1---|-1---1---1---1---|

G |-----------------|-----------------|-----------------|-----------------|
D |-----------------|-----------------|-----------------|-----------------|
A |-----------------|-----------------|-----------------|-----------------|
E |-1---1---1---1---|-1---1---1---1---|-1---1---1---1---|-1---1---1---1---|

G |-----------------|-----------------|-----------------|-----------------|
D |-----------------|-----------------|-----------------|-----------------|
A |-----------------|-----------------|-----------------|-----------------|
E |-1---1---1---1---|-1---1---1---1---|-1---1---1---1---|-1---1---1---1---|

I might be coming
G |-----------------|-----------------|-----------------|-----------------|
D |-----------------|-----------------|-----------------|-----------------|
A |-----------------|-----------------|-----------------|-----------------|
E |-1---1---1---1---|-1---1---1---1---|-1---1---1---1---|-1---1---1---1---|

G |-----------------|-----------------|-----------------|-----------------|
D |-----------------|-----------------|-----------------|-----------------|
A |-----------------|-----------------|-----------------|-----------------|
E |-1---1---1---1---|-1---1---1---1---|-1---1---1---1---|-1---1---1---1---|

Ho ho ho ...
G |---------R-------|-------R---------|-------R---------|-------R---------|
D |-----------------|-----------------|-----------------|-----------------|
A |-----------------|-----------------|-----------------|-----------------|
E |-----------------|-----------------|-----------------|-----------------|
ho ho ho ….
G |---------R-------|-------R---------|-------R---------|-------R---------|
D |-----------------|-----------------|-----------------|-----------------|
A |-----------------|-----------------|-----------------|-----------------|
E |-----------------|-----------------|-----------------|-----------------|

G |--------------------|--------------------|--------------------|--------------------|
D |--------------------|--------------------|-1--1-1-1--1--1-1-1-|--------------------|
A |--------------------|-3--3-3-3--3--3-3-3-|--------------------|-1--1-1-1--1--1-1-1-|
E |-1--1-1-1--1--1-1-1-|--------------------|--------------------|--------------------|

i might be coming
G |--------------------|--------------------|--------------------|--------------------|
D |--------------------|--------------------|-1--1-1-1--1--1-1-1-|--------------------|
A |--------------------|-3--3-3-3--3--3-3-3-|--------------------|-1--1-1-1--1--1-1-1-|
E |-1--1-1-1--1--1-1-1-|--------------------|--------------------|--------------------|

Ho ho ho ...
G |---------R-------|-------R---------|-------R---------|-------R---------|
D |-----------------|-----------------|-----------------|-----------------|
A |-----------------|-----------------|-----------------|-----------------|
E |-----------------|-----------------|-----------------|-----------------|
ho ho ho ….
G |---------R-------|-------R---------|-------R---------|-------R---------|
D |-----------------|-----------------|-----------------|-----------------|
A |-----------------|-----------------|-----------------|-----------------|
E |-----------------|-----------------|-----------------|-----------------|

when you discover
G |--------------------|--------------------|--------------------|-------------------|
D |--------------------|--------------------|-1--1-1-1--1--1-1-1-|-------------------|
A |--------------------|-3--3-3-3--3--3-3-3-|--------------------|-1--1-1-1-3-4-3-1--|
E |-1--1-1-1--1--1-1-1-|--------------------|--------------------|-------------------|

another level
G |--------------------|--------------------|--------------------|-------------------|
D |--------------------|--------------------|-1--1-1-1--1--1-1-1-|-------------------|
A |--------------------|-3--3-3-3--3--3-3-3-|--------------------|-1--1-1-1-3-4-3-1--|
E |-1--1-1-1--1--1-1-1-|--------------------|--------------------|-------------------|

when you discover
G |--------------------|--------------------|--------------------|-------------------|
D |--------------------|--------------------|-1--1-1-1--1--1-1-1-|-------------------|
A |--------------------|-3--3-3-3--3--3-3-3-|--------------------|-1--1-1-1-3-4-3-1--|
E |-1--1-1-1--1--1-1-1-|--------------------|--------------------|-------------------|

another level
G |--------------------|--------------------|--------------------|-------------------|
D |--------------------|--------------------|-1--1-1-1--1--1-1-1-|-------------------|
A |--------------------|-3--3-3-3--3--3-3-3-|--------------------|-1--1-1-1-3-4-3-1--|
E |-1--1-1-1--1--1-1-1-|--------------------|--------------------|-------------------|

my friends told me …...
G |--------------------|--------------------|--------------------|-------------------|
D |--------------------|--------------------|-1--1-1-1--1--1-1-1-|-------------------|
A |--------------------|-3--3-3-3--3--3-3-3-|--------------------|-1--1-1-1-3-4-3-1--|
E |-1--1-1-1--1--1-1-1-|--------------------|--------------------|-------------------|

all I know is I would...…
G |--------------------|--------------------|--------------------|-------------------|
D |--------------------|--------------------|-1--1-1-1--1--1-1-1-|-------------------|
A |--------------------|-3--3-3-3--3--3-3-3-|--------------------|-1--1-1-1-3-4-3-1--|
E |-1--1-1-1--1--1-1-1-|--------------------|--------------------|-------------------|

above the earth for all your worth
G |--------------------|--------------------|--------------------|---------------|
D |--------------------|--------------------|--------------------|---------------|
A |--------------------|--------------------|--------------------|---------------|
E |-1--1-1-1--1--1-1-1-|-1--1-1-1--1--1-1-1-|-1--1-1-1--1--1-1-1-|-1--1-1-1--1-1-|
ⓘ Bass guitar tab for 'Mile High' by Blondie, a new wave band formed in 1974 from New York City, USA. Blondie is known for their happy punk music.

Almost there ...

Sign in to get your own page with links to favourite songs and more. You are just one click away...

Login with Facebook Login with Google