Log in

One click and you are in

Login with Facebook Login with Google

Why sign up and log in

Guitar Tabs Explorer
Blondie tabs for Maria

Guitar tabs with lyrics

Here is a tab for Blondies new single Maria from the album No Exit

Blondie---MARIA
>From The album No Exit.

Tabbed by Setch.
Submitted by Jason Carter

This is pretty basic tab, but it should give an ok
impression for beginners, and anyone more advanced
should be able to work out the rest for themselves

**********************Intro***********************

Play with heavy palm muting.
 =20
|------------------------------------------------|
|------------------------------------------------|
|------------------------------------------------|
|------------------------------------------------|
|-777-777-77--777-777-77--444-444-44-222-222-22--|
|-555-555-55--444-444-44--222-222-22-000-000-00--|

 =20
|------------------------------------------------|
|------------------------------------------------|
|------------------------------------------------|
|-------------999-999-99--777-777-77-777-777-77--|
|-777-777-77--777-777-77--555-555-55-555-555-55--|
|-555-555-55-------------------------------------|

**********************Verse***********************

Guitar 1 plays muted, guitar 2 plays full chords &
arpegiates and adlibs for effect......I don't know
exactly what it does.

|------------------------(these should)----------|
|------------------------(be 11's not )----------|
|------------------------(     1's    )----------|
|-------------999-999-99--111-111-11-777-777-77--|
|-777-777-77--777-777-77--999-999-99-555-555-55--|
|-555-555-55-------------------------------------|
 =20
|------------------------------------------------|
|------------------------------------------------|
|------------------------------------------------|
|-------------999-999-99--777-777-77-777-777-77--|
|-777-777-77--777-777-77--555-555-55-555-555-55--|
|-555-555-55-------------------------------------|

********************Pre-Chorus********************

Play this twice.

|------------------------(   these should      )-|
|------------------------(    be 11's not      )-|
|------------------------(         1's         )-|
|-777-777-77--999-999-99--111-111-11-111-111-11--|
|-555-555-55--777-777-77--999-999-99-999-999-99--|
|------------------------------------------------|

**********************Chorus**********************

As with the verse, these are the basic chords pla-
yed by guitar 1, the second guitar still does some
funky improv thing.....

|------------------------(these should)----------|
|------------------------(be 11's not )----------|
|------------------------(     1's    )----------|
|-------------999-999-99--111-111-11-777-777-77--|
|-777-777-77--777-777-77--999-999-99-555-555-55--|
|-555-555-55-------------------------------------|

|---------------------------------------------------|
|---------------------------------------------------|
|-------------------------7--777-7--77-7--77-7--777-|
|-------------999-999-99--4sl555-4sl55-4sl55-4sl555-|
|-777-777-77--777-777-77----------------------------|
|-555-555-55----------------------------------------|

********************Guitar Solo**********************

Ignore most of the spacing, it isn't representative=20
of timing, it just there for a rough idean and it has
to fit in the right amount of space...

|---------------------------------------------------|
|-9h10--9h10--------9-10p9-10p9---------------------|
|-9h11--9h11--9--11--------------11-9-8h9-8---------|
|--------------------------------------------9------|
|---------------------------------------------------|
|---------------------------------------------------|

|---------------------------------------------------|
|--------------------4b5----------------------------|
|----2----4b5r4-2----4b5-2--------------------------|
|-4----4----------4--------4------------------------|
|-----------------------------4--2-0-2b3r2-0-2-0----|
|---------------------------------------------------|

|---------------------------------------------------|
|---------------------------------------------------|
|-------------2---2h4-2----------7---9p7-----9-x-9--|
|-------2-3-4---4-------4---------7-----7----9-x-9--|
|-2---2-------------------slide5---5-----sl7--------|
|---------------------------------------------------|

That's al
ⓘ Guitar tab for 'Maria' by Blondie, a new wave band formed in 1974 from New York City, USA. Blondie is known for their happy punk music.

Other versions of Maria

Maria (Ver. 2)Tabs

Almost there ...

Sign in to get your own page with links to favourite songs and more. You are just one click away...

Login with Facebook Login with Google