Log in

One click and you are in

Login with Facebook Login with Google

Why sign up and log in

Guitar Tabs Explorer
Blondie bass tabs for Man overboard

Bass tabs

std tuning


INTRO
**
G |-----------------|--------7-6------|-----------------|---------7-6-----|
D |-----------------|------9-----7----|-----------------|------9------7---|
A |------9--------9-|-7-10------------|------9--------9-|-7-10------------|
E |-7-10---7-7-10---|-----------------|-7-10---7-7-10---|-----------------|
  1 & 2 & 3 & 4 &  1 & 2 & 3 & 4 &  1 & 2 & 3 & 4 &  1 & 2 & 3 & 4 &

G |-----------------|-------9-7-6-----|-----------------|-------76--9-7---|
D |-----------------|------9------7---|-----------------|------9--7-------|
A |------9--------9-|-7-10------------|------9--------9-|-7-10------------|
E |-7-10---7-7-10---|-----------------|-7-10---7-7-10---|-----------------|
  1 & 2 & 3 & 4 &  1 & 2 & 3 & 4 &  1 & 2 & 3 & 4 &  1 & 2 & 3 & 4 &
  ooing bit
G |--------9-7------|-----------9-----|-----------------|-----------------|
D |-----------9-7-5-|-----------------|-----------------|-----------------|
A |----457----------|----457----------|-----------------|-----------------|
E |-7---------------|-7---------------|-----------------|-----------------|
  1 & 2 & 3 & 4 &  1 & 2 & 3 & 4 &  1 & 2 & 3 & 4 &  1 & 2 & 3 & 4


VERSE 1
  man over board ......
G |-----------------|--------7-6---9-7|-----------------|-------9-7-6-----|
D |-----------------|------9-----7----|-----------------|------9------7---|
A |------9--------9-|-7-10------------|------9--------9-|-7-10------------|
E |-7-10---7-7-10---|-----------------|-7-10---7-7-10---|-----------------|
  1 & 2 & 3 & 4 &  1 & 2 & 3 & 4 &  1 & 2 & 3 & 4 &  1 & 2 & 3 & 4 &
oh I was a sale ......
G |-----------------|-----------------|-----------------|-----------------|
D |-----------------|-----------------|-----------------|-----------------|
A |-7---------------|-----------------|-7-77------------|------999--------|
E |---------7-------|-9-------10------|---------7-77----|-9999------------|
  1 & 2 & 3 & 4 &  1 & 2 & 3 & 4 &  1 & 2 & 3 & 4 &  1 & 2 & 3 & 4

FILL
oooooing bit
G |-----------------|--------7-6---9-7|-----------------|--------7-6---9-7|
D |-----------------|------9-----7----|-----------------|------9-----7----|
A |------9-7-------9|-7-10------------|------9--------9-|-7-10------------|
E |-7-10-----7-710--|-----------------|-7-10---7-7-10---|-----------------|
  1 & 2 & 3 & 4 &  1 & 2 & 3 & 4 &  1 & 2 & 3 & 4 &  1 & 2 & 3 & 4 &
he gave it all for.......
G |---------9-------|-9----------999-11-9-11-9-12-11--999-11-9-11-9-12-14-12-11|
D |-----------------|--7-777----------|-----------------|-----------------|
A |------457-------457------9-999-----|-----------------|-----------------|
E |7---------7------|-----------------|-----------------|-----------------|
  1 & 2 & 3 & 4 &  1 & 2 & 3 & 4 &  1 & 2 & 3 & 4 &  1 & 2 & 3 & 4 &

INSTRUMENTAL BIT repeat fill two times no ooooing

VERSWE 2 as verse 1
repeat first section of intro** six times
FILL 2
G |-----------------|-----------------|-----------------|-------9999997---|
D |-----------------|-----------------|-----------------|--------------97-|
A |-------7777777---|-------77777777--|--------77777777-|-----------------|
E |-7---------------|-7---------------|-7---------------|-7---------------|
  1 & 2 & 3 & 4 &  1 & 2 & 3 & 4 &  1 & 2 & 3 & 4 &  1 & 2 & 3 & 4 &

he gave it all for love
G |-----------9-7---|-----------------|--------------679|16161616-16161616|
D |--------------9-7-5----------------|-----------789---|-----------------|
A |-------457-------|------457--------|-----457--9------|-----------------|
E |-7---------------|--7--------------|-567-------------|-----------------|
  1 & 2 & 3 & 4 &  1 & 2 & 3 & 4 &  1 & 2 & 3 & 4 &  1 & 2 & 3 & 4 &

G |-----------------|-----------------|-----------------|---679-9-7-------|
D |-14-14-12--------|-----------------|-----------------|789--------7-9---|
A |----------12--14---1214129-7-7-5---|-457--754--457-9-|-----------------|
E |-----------------|---------------57|---------7-------|-----------------|
  1 & 2 & 3 & 4 &  1 & 2 & 3 & 4 &  1 & 2 & 3 & 4 &  1 & 2 & 3 & 4 &

G |-----------------|-----------------|-----------------|-----------------|
D |9-7--------------|-------789-------|-----------------|-----------------|
A |----9-7-7-5------|-457--9----------|-----------------|-----------------|
E |------------5-7--|-----------------|-----------------|-----------------|
  1 & 2 & 3 & 4 &  1 & 2 & 3 & 4 &  1 & 2 & 3 & 4 &  1 & 2 & 3 & 4 &

ⓘ Bass guitar tab for 'Man Overboard' by Blondie, a new wave band formed in 1974 from New York City, USA. Blondie is known for their happy punk music.

Almost there ...

Sign in to get your own page with links to favourite songs and more. You are just one click away...

Login with Facebook Login with Google