Log in

One click and you are in

Login with Facebook Login with Google

Why sign up and log in

Guitar Tabs Explorer
Blondie bass tabs for In the flesh

Bass tabs

INTRO
G |---------------|---------------|---------------|---------------|
D |---------------|---------------|---------------|---------------|
A |---------------|-7-----7-6-7---|-5-----5-4-5---|-7-----7-5-----|
E |-5-----5-4-5---|---------------|---------------|-----------7---|

G |---------------|---------------|---------------|---------------|
D |---------------|---------------|---------------|---------------|
A |---------------|-7-----7-6-7---|-5-----5-4-5---|-7-----7-5-----|
E |-5-----5-4-5---|---------------|---------------|-----------7---|

VERSE
G |---------------|---------------|---------------|---------9-----|
D |---------------|---------------|---------------|---------------|
A |---------------|---------7-6---|-5-------4-5---|-7---7---------|
E |-5-----5-5-5---|---------------|---------------|---------------|

G |---------------|---------------|---------------|---------------|
D |---------------|---------------|---------------|---------------|
A |---------------|---------------|---------------|-7-----7-5-----|
E |-9-------7-8---|-9-------9-8---|-7-----7-6-7---|-----------7---|

G |---------------|---------------|---------------|---------------|
D |---------------|---------------|---------------|---------------|
A |---------------|-7-----7-6-7---|-5-----5-4-5---|-7-----7-5-----|
E |-5-----5-4-5---|---------------|---------------|-----------7---|


VERSE
G |---------------|---------------|---------------|---------9-----|
D |---------------|---------------|---------------|---------------|
A |---------------|---------7-6---|-5-------4-5---|-7---7---------|
E |-5-----5-5-5---|---------------|---------------|---------------|

G |---------------|---------------|---------------|---------------|
D |---------------|---------------|---------------|---------------|
A |---------------|---------------|---------------|-7-----7-5-----|
E |-9-------7-8---|-9-------9-8---|-7-----7-6-7---|-----------7---|

G |---------------|---------------|---------------|---------------|
D |---------------|---------------|---------------|---------------|
A |---------------|-7-----7-6-7---|-5-----5-4-5---|-7-7-7-7-7-7---|
E |-5-----5-4-5---|---------------|---------------|---------------|

CHORUS
G |---------------|---------------|---------------|---------------|
D |---------------|---------------|---------------|---------------|
A |---------------|---------------|---------------|---------------|
E |-9-9-9-9-9-9---|-9-9-9-9-9-9---|-4-4-4-4-4-4---|-4-4-4-4-4-4---|

G |---------------|---------------|---------------|---------------|
D |---------4-----|---------4-----|---------------|---------------|
A |-------4---4---|-------4---4---|---------------|---------------|
E |-2---2---------|-2---2---------|-5-5-5-5-5-5---|-4-4-4-4-4-4---|

G |---------------|---------------|---------------|---------------|
D |---------------|---------------|---------------|---------------|
A |---------------|---------------|---------------|---------------|
E |-9-9-9-9-------|-9-9-9-9-------|-4-4-4-4-------|-4-4-4-4-------|

G |---------------|---------------|---------------|---------------|
D |---------4-----|---------4-----|---------------|---------------|
A |-------4---4---|-------4---4---|---------------|---------------|
E |-2---2---------|-2---2---------|-5-5-5-5-5-5---|-7-7-7-7-7-7---|

G |---------------|---------------|---------------|---------------|
D |---------------|---------------|---------------|---------------|
A |---------------|-7-7-7-7-7-7---|-5-5-5-5-5-5---|-7-7-7-7-5-----|
E |-5-5-5-5-5-5---|---------------|---------------|-----------7---|


VERSE
G |---------------|---------------|---------------|---------9-----|
D |---------------|---------------|---------------|---------------|
A |---------------|---------7-6---|-5-------4-5---|-7---7---------|
E |-5-----5-5-5---|---------------|---------------|---------------|

G |---------------|---------------|---------------|---------------|
D |---------------|---------------|---------------|---------------|
A |---------------|---------------|---------------|-7-----7-5-----|
E |-9-------7-8---|-9-------9-8---|-7-----7-6-7---|-----------7---|

G |---------------|---------------|---------------|---------------|
D |---------------|---------------|---------------|---------------|
A |---------------|-7-----7-6-7---|-5-----5-4-5---|-7-----7-5-----|
E |-5-----5-4-5---|---------------|---------------|-----------7---|


VERSE
G |---------------|---------------|---------------|---------9-----|
D |---------------|---------------|---------------|---------------|
A |---------------|---------7-6---|-5-------4-5---|-7---7---------|
E |-5-----5-5-5---|---------------|---------------|---------------|

G |---------------|---------------|---------------|---------------|
D |---------------|---------------|---------------|---------------|
A |---------------|---------------|---------------|-7-----7-5-----|
E |-9-------7-8---|-9-------9-8---|-7-----7-6-7---|-----------7---|

G |---------------|---------------|---------------|---------------|
D |---------------|---------------|---------------|---------------|
A |---------------|-7-----7-6-7---|-5-----5-4-5---|-7-----7-5-----|
E |-5-----5-4-5---|---------------|---------------|-----------7---|


ENDING
G |---------------|---------------|---------------|---------------|
D |---------------|---------------|---------------|---------------|
A |---------------|-7-----7-6-7---|-5-----5-4-5---|-7-----7-5-----|
E |-5-----5-4-5---|---------------|---------------|-----------7---|

G |---------------|-9---9-9---9---|-7---7-7---7---|-9---9-9---9-14-|
D |-7---7-7---7---|---9-----9-----|---7-----7-----|---9-----9------|
A |---7-----7-----|---------------|---------------|----------------|
E |---------------|---------------|---------------|----------------|
ⓘ Bass guitar tab for 'In The Flesh' by Blondie, a new wave band formed in 1974 from New York City, USA. Blondie is known for their happy punk music.

Almost there ...

Sign in to get your own page with links to favourite songs and more. You are just one click away...

Login with Facebook Login with Google