Log in

One click and you are in

Login with Facebook Login with Google

Why sign up and log in

Guitar Tabs Explorer
Blondie bass tabs for Im always touched by your presence dear

I'm Always Touched By Your Presence Dear bass tab by Blondie

Blondie bass tabs for Im always touched by your presence dear

Bass tabs

Intro:
G|--------------|-----------------|
D|-GUITAR START-|------7--------7-|
A|--------------|-----------------|
E|--------------|-5--5-----5--5---|
Verse 1:
G|-----------------------------------------------------------------|
D|-----------------------------------------------------------------|
A|------------------3-4-5--5-5--5-5--5-5--3-2------------------3-4-|
E|-5--5-5--5-5--5-5---------------------------5--5-5--5-5--5-5-----|

G|----------------------------------------------------------------------|
D|----------------------------------------------------------------------|
A|-5--5-5--5-5--5-5--5-4-------------7--7--7--7--------------7--7--7--7-|
E|-----------------------7--7--7--7--------------7--7--7--7-------------|

G|------------------------------------------------|
D|------------------------------------------------|
A|-------------5--5--5--5-------------------------|
E|-7--7--7--7--------------5--5--5--5--5--5--5--5-|


Verse 2:
G|-----------------------------------------------------------------|
D|-----------------------------------------------------------------|
A|------------------3-4-5--5-5--5-5--5-5--3-2------------------3-4-|
E|-5--5-5--5-5--5-5---------------------------5--5-5--5-5--5-5-----|

G|----------------------------------------------------------------------|
D|----------------------------------------------------------------------|
A|-5--5-5--5-5--5-5--5-4-------------7--7--7--7--------------7--7--7--7-|
E|-----------------------7--7--7--7--------------7--7--7--7-------------|

G|------------------------------------------------|
D|------------------------------------------------|
A|-------------5--5--5--5-------------------------|
E|-7--7--7--7--------------5--5--5--5--5--5--5--5-|

Bridge: (Play Octaves)
G|---9--9--9--9------------------9--9--9--9----------------------------|
D|-----------------7--7--7--7-----------------7--7--7--7----4--4--4--4-|
A|-7--7--7--7------------------7--7--7--7------------------------------|
E|---------------5--5--5--5------------------5--5--5--5----2--2--2--2--|

G|--4--4--4--4-----------------4--4--4--4--4--4--4--4-|
D|---------------4--4--4--4---------------------------|
A|-2--2--2--2-----------------2--2--2--2--2--2--2--2--|
E|--------------2--2--2--2----------------------------|

Interlude:
G|-----------------------------------------------------------------|
D|-----------------------------------------------------------------|
A|------------------3-4-5--5-5--5-5--5-5--3-2------------------3-4-|
E|-5--5-5--5-5--5-5---------------------------5--5-5--5-5--5-5-----|

G|-------------------------------------------------|
D|-------------------------------------------------|
A|-5--5-5--5-5--5-5--5---0--0--0--0--0--0--0--0--0-|
E|-------------------------------------------------|

G|------------------------|
D|------------------------|
A|-5--5--5--5--5--5--5--5-|
E|------------------------|


Bridge: (Play Octaves)
G|---9--9--9--9------------------9--9--9--9----------------------------|
D|-----------------7--7--7--7-----------------7--7--7--7----4--4--4--4-|
A|-7--7--7--7------------------7--7--7--7------------------------------|
E|---------------5--5--5--5------------------5--5--5--5----2--2--2--2--|

G|--4--4--4--4-----------------4--4--4--4--4--4--4-----------|
D|---------------4--4--4--4----------------------------------|
A|-2--2--2--2-----------------2--2--2--2--2--2--2--2--2--2-2-|
E|--------------2--2--2--2--------------------------------[--|


Verse 3:
G|-----------------------------------------------------------------|
D|-----------------------------------------------------------------|
A|------------------3-4-5--5-5--5-5--5-5--3-2------------------3-4-|
E|-5--5-5--5-5--5-5---------------------------5--5-5--5-5--5-5-----|

G|----------------------------------------------------------------------|
D|----------------------------------------------------------------------|
A|-5--5-5--5-5--5-5--5-4-------------7--7--7--7--------------7--7--7--7-|
E|-----------------------7--7--7--7--------------7--7--7--7-------------|

G|------------------------------------------------|
D|------------------------------------------------|
A|-------------5--5--5--5-------------------------|
E|-7--7--7--7--------------5--5--5--5--5--5--5--5-|


Outro:
G|------------------------------------------------|
D|------------------------------------------------|
A|-------------5--5--5--5-------------------------|
E|-7--7--7--7--------------5--5--5--5--5--5--5--5-|

                      (Bass Chord & End)
G|-----------------------------------------------|
D|-------------------------7----7----7----7----7-|
A|-------------5--5--5--5------------------------|
E|-7--7--7--7----------------------------------5-|
ⓘ Bass guitar tab for 'Im Always Touched By Your Presence Dear' by Blondie, a new wave band formed in 1974 from New York City, USA. Blondie is known for their happy punk music.

Almost there ...

Sign in to get your own page with links to favourite songs and more. You are just one click away...

Login with Facebook Login with Google