Log in

One click and you are in

Login with Facebook Login with Google

Why sign up and log in

Guitar Tabs Explorer
Blondie bass tabs for Heart of glass (Ver. 2)

Bass tabs

std tuning

INTRO after keyboard


G |-----------------|-----------------|-----------------|-----------------|
D |-----------------|-----------------|-----------------|-----------------|
A |-7---7---7--9----|-7---7---7--9----|-7---7---7--9----|-7---7---7--9----|
E |---------------7-|---------------7-|---------------7-|---------------7-|
  1 & 2 & 3 & 4 &  1 & 2 & 3 & 4 &  1 & 2 & 3 & 4 &  1 & 2 & 3 & 4 &

VERSE 1

G |-----------------|-----------------|-----------------|-----------------|
D |-----------------|---------------11|--------------11-|-----------------|
A |-7---7---7--9----|------------11---|-----------11----|-7---7---7--9----|
E |---------------7-|-9---9---9-------|-9---9---9-------|---------------7-|
  1 & 2 & 3 & 4 &  1 & 2 & 3 & 4 &  1 & 2 & 3 & 4 &  1 & 2 & 3 & 4 &

G |-----------------|-----------------|-----------------|-----------------|
D |-----------------|--------------11-|--------------11-|-----------------|
A |-7---7---7--9----|-----------11----|-----------11----|-7---7---7--9----|
E |---------------7-|-9---9---9-------|-9---9---9-------|---------------7-|
  1 & 2 & 3 & 4 &  1 & 2 & 3 & 4 &  1 & 2 & 3 & 4 &  1 & 2 & 3 & 4 &
repeat intro

VERSE 2
repeat verse

FILL

G |---9---11---12--13-----------------|-----------------|-----------------|
D |-----------------|-----------------|-----------------|-----------------|
A |-7---9----10--11-|-----------------|-----------------|-----------------|
E |-----------------|-----------------|-----------------|-----------------|
  1 & 2 & 3 & 4 &  1 & 2 & 3 & 4 &  1 & 2 & 3 & 4 &  1 & 2 & 3 & 4 &
 CHORUS


G |-----------------|-----------------|-----------------|------4--6--7--8-|
D |-----------------|-----------------|-----------------|4444-------------|
A |-----------------|-7-7-7-7-7-7-7-7-|-----------------|----2--4--5---6--|
E |-5-5-5-5-5-5-5-5-|-----------------|-5-5-5-5-5-5-5-5-|-----------------|
  1 & 2 & 3 & 4 &  1 & 2 & 3 & 4 &  1 & 2 & 3 & 4 &  1 & 2 & 3 & 4 &
repeat intro
repeat verse
repeat chorus

INSTRUMENTAL as chorus

oooooo hoooo     oooooo hooooo
G |-----------------|-----------------|-----------------|-----------------|
D |-----------------|-----------------|-----------------|-----------------|
A |7----------------|-----------------|-7---7---7--9----|-7---7---7--9----|
E |-----------------|-----------------|---------------7-|---------------7-|
  1 & 2 & 3 & 4 &  1 & 2 & 3 & 4 &  1 & 2 & 3 & 4 &  1 & 2 & 3 & 4 &
repeat verse
more ooing and hoooing to intro riff play out to this

ⓘ This is the 2nd version of bass guitar tab for 'Heart Of Glass' by Blondie, a new wave band formed in 1974 from New York City, USA. Blondie is known for their happy punk music.

Other versions of Heart Of Glass

Heart of glassBass tabs

Almost there ...

Sign in to get your own page with links to favourite songs and more. You are just one click away...

Login with Facebook Login with Google