Log in

One click and you are in

Login with Facebook Login with Google

Why sign up and log in

Guitar Tabs Explorer
Blondie bass tabs for Hanging on the telephone

Hanging On The Telephone bass tab by Blondie

Blondie bass tabs for Hanging on the telephone

Bass tabs

Intro phone (0.00)


Verse (0.06)

G-----------------------------------------|
D-----------------------------------------|
A-6-6-6-6-6-6-6-6-10-10-10-10-10-10-10-10-|  x 2
E-----------------------------------------|

G---------------------------------|
D---------------------------------|
A-6-6-6-6-6-6-6-6-6-6-6-6-6-6-6-6-|
E---------------------------------|
Chorus (0.16)

G-----------------------------------------------------------------|
D-----------------------------------------------------------------|
A-6-6-6-6-6-6-6-6-------------------------------------------------| x 2
E-----------------8-8-8-8-8-8-8-8-3-3-3-3-3-3-3-3-3-3-3-3-3-3-3-3-|


Verse 2 (0.28)

G----------------------------------------------|
D----------------------------------------------|
A-10-10-10-10-10-10-10-10-6-6-6-6-6-6-6-6- x 3-|
E----------------------------------------------|

G------------------|
D------------------|
A-6-6-6-6-6-6-6-6--|
E------------------|

Bridge (0.40)

G---------3-------------------3-------------------3------------------|
D------5------------3------5------------3------5---------------------|
A-3-6------- ----5----3-6------------5---3-6--------3-3-3-3-3-3-3-3--|
E-------------3-6-----------------3-6--------------------------------|


Chorus (0.49)

G-----------------------------------------------------------------|
D-----------------------------------------------------------------|
A-6-6-6-6-6-6-6-6-------------------------------------------------|x 2
E-----------------8-8-8-8-8-8-8-8-3-3-3-3-3-3-3-3-3-3-3-3-3-3-3-3-|


Verse (1.02)

G-------------------------------------------------|
D-------------------------------------------------|
A-6-6-6-6-6-6-6-6-10-10-10-10-10-10-10-10-  x 2-|
E-------------------------------------------------|

G---------------------------------|
D---------------------------------|
A-6-6-6-6-6-6-6-6-6-6-6-6-6-6-6-6-|
E---------------------------------|


Chorus/guitar solo (1.11)

G----------------------------------------------------------------------------|
D----------------------------------------------------------------------------|
A-6-6-6-6-6-6-6-6------------------------------------------------------------|
E---------------------8-8-8-8-8-8-8-8-3-3-3-3-3-3-3-3-3-3-3-3-3-3-3-3--------|

G---------------------------------------------|
D---------------------------------------------|
A---------------------------------------- x 3-|
E-3-3-3-3-3-3-3-3-6-6-6-6-6-6-6-6-------------|

G----------------------------------------------|
D----------------------------------------------|
A-6-------5------------------------------------|
E-------------------6-------1-------3----------|


Verse

G-------------------------------------------------------|
D-------------------------------------------------------|
A-6-6-6-6-6-6-6-6-10-10-10-10-10-10-10-10- x 3----------|
E-------------------------------------------------------|

G-----------------------|
D-----------------------|
A-6-6-6-6-6-6-6-6-------|
E-----------------------|


Bridge

G---------3-------------------3-------------------3----------------------|
D------5------------3------5------------3------5-------------------------|
A-3-6------- ----5----3-6------------5---3-6------3-3-3-3-3-3-3-3--------|
E-------------3-6-----------------3-6------------------------------------|


Chorus to end

G----------------------------------------------------------------------------|
D----------------------------------------------------------------------------|
A-6-6-6-6-6-6-6-6------------------------------------------------------------|
ⓘ Bass guitar tab for 'Hanging On The Telephone' by Blondie, a new wave band formed in 1974 from New York City, USA. Blondie is known for their happy punk music.

Almost there ...

Sign in to get your own page with links to favourite songs and more. You are just one click away...

Login with Facebook Login with Google