Log in

One click and you are in

Login with Facebook Login with Google

Why sign up and log in

Guitar Tabs Explorer
Blondie bass tabs for Fan mail

Bass tabs

Tuning: Standard EADG

No Intro


VERSE 1
G |-----------------|-----------------|-----------------|-----------------|
D |---5-7-----------|-7-5-------------|---5-7-----------|-7-5-------------|
A |-5---------------|-----7-----------|-5---------------|-----7-----------|
E |-------5---------|-------3---------|-------5---------|-------3---------|
  1 & 2 & 3 & 4 &  1 & 2 & 3 & 4 &  1 & 2 & 3 & 4 &  1 & 2 & 3 & 4 &
G |-----------------|-----------------|-----------------|-----------------|
D |---5-7-----------|-7-5-------------|---5-7-----------|-7-5-------------|
A |-5---------------|-----7-----------|-5---------------|-----7-----------|
E |-------5---------|-------3---------|-------5---------|-------3---------|
  1 & 2 & 3 & 4 &  1 & 2 & 3 & 4 &  1 & 2 & 3 & 4 &  1 & 2 & 3 & 4 &
VERSE 2
G |-----------------|-----------------|-----------------|-----------------|
D |---5-7-----------|-7-5-------------|---5-7-----------|-7-5-------------|
A |-5---------------|-----7-----------|-5---------------|-----7-----------|
E |-------5---------|-------3---------|-------5---------|-------3---------|
  1 & 2 & 3 & 4 &  1 & 2 & 3 & 4 &  1 & 2 & 3 & 4 &  1 & 2 & 3 & 4 &
G |-----------------|-----------------|-----------------|-----------------|
D |---5-7-----------|-7-5-------------|---5-7-----------|-7-5-------------|
A |-5---------------|-----7-----------|-5---------------|-----7-----------|
E |-------5---------|-------3---------|-------5---------|-------3---------|
  1 & 2 & 3 & 4 &  1 & 2 & 3 & 4 &  1 & 2 & 3 & 4 &  1 & 2 & 3 & 4 &


CHORUS
G |-----------------|---575-57-75-----|-----------------|---575-57-75-----|
D |-888-888------1010-88---8----------|-888-888-----1010|-88---8----------|
A |---------8-8-----|-----------------|---------8-8-----|-----------------|
E |-------------8---|-----------------|------------8----|-----------------|
  1 & 2 & 3 & 4 &  1 & 2 & 3 & 4 &  1 & 2 & 3 & 4 &  1 & 2 & 3 & 4 &

FILL

G |-----------------|-----------------|-----------------|-----------------|
D |-----------------|-----------------|-----------------|-----------------|
A |-5---------------|-----------------|-5---------------|-----------------|
E |-----5-----------|-5----3----------|-----5-----------|-5-----3---------|
  1 & 2 & 3 & 4 &  1 & 2 & 3 & 4 &  1 & 2 & 3 & 4 &  1 & 2 & 3 & 4 &

VERSE 2
G |-----------------|-----------------|-----------------|-----------------|
D |---5-7-----------|-7-5-------------|---5-7-----------|-7-5-------------|
A |-5---------------|-----7-----------|-5---------------|-----7-----------|
E |-------5---------|-------3---------|-------5---------|-------3---------|
  1 & 2 & 3 & 4 &  1 & 2 & 3 & 4 &  1 & 2 & 3 & 4 &  1 & 2 & 3 & 4 &
G |-----------------|-----------------|-----------------|-----------------|
D |---5-7-----------|-7-5-------------|---5-7-----------|-7-5-------------|
A |-5---------------|-----7-----------|-5---------------|-----7-----------|
E |-------5---------|-------3---------|-------5---------|-------3---------|
  1 & 2 & 3 & 4 &  1 & 2 & 3 & 4 &  1 & 2 & 3 & 4 &  1 & 2 & 3 & 4 &


CHORUS
G |-----------------|---575-57-75-----|-----------------|---575-57-7------|
D |-888-888------1010-88---8----------|-888-888-----1010|-88---8----7-----|
A |---------8-8-----|-----------------|---------8-8-----|-----------------|
E |-------------8---|-----------------|------------8----|-----------------|
  1 & 2 & 3 & 4 &  1 & 2 & 3 & 4 &  1 & 2 & 3 & 4 &  1 & 2 & 3 & 4 &

GIDDY BIT
G |-----------------|-----------------|-----------------|-----------------|
D |--------REST-----|---REST----------|----REST---------|---REST----------|
A |-----------------|-----------------|-----------------|-----------------|
E |-----------------|-----------------|-----------------|-----------------|
  1 & 2 & 3 & 4 &  1 & 2 & 3 & 4 &  1 & 2 & 3 & 4 &  1 & 2 & 3 & 4 &
G |-----------------|-----------------|-----------------|-----------------|
D |---5-7-----------|-7-5-------------|---5-7-----------|-7-5-------------|
A |-5---------------|-----7-----------|-5---------------|-----7-----------|
E |-------5---------|-------3---------|-------5---------|-------3---------|
  1 & 2 & 3 & 4 &  1 & 2 & 3 & 4 &  1 & 2 & 3 & 4 &  1 & 2 & 3 & 4 &
G |-----------------|-----------------|-----------------|-----------------|
D |---5-7-----------|-7-5-------------|---5-7-----------|-7-5-------------|
A |-5---------------|-----7-----------|-5---------------|-----7-----------|
E |-------5---------|-------3---------|-------5---------|-------3---------|
  1 & 2 & 3 & 4 &  1 & 2 & 3 & 4 &  1 & 2 & 3 & 4 &  1 & 2 & 3 & 4 &


VERSE 4 AND ENDING
G |-----------------|-----------------|-----------------|-----------------|
D |---5-7-----------|-7-5-------------|---5-7-----------|-7-5-------------|
A |-5---------------|-----7-----------|-5---------------|-----7-----------|
E |-------5---------|-------3---------|-------5---------|-------3---------|
  1 & 2 & 3 & 4 &  1 & 2 & 3 & 4 &  1 & 2 & 3 & 4 &  1 & 2 & 3 & 4 &
G |-----------------|-----------------|-----------------|-----------------|
D |---5-7-----------|-7-5-------------|---5-7-----------|-7-5-------------|
A |-5---------------|-----7-----------|-5---------------|-----7-----------|
E |-------5---------|-------3---------|-------5---------|-------3---------|
  1 & 2 & 3 & 4 &  1 & 2 & 3 & 4 &  1 & 2 & 3 & 4 &  1 & 2 & 3 & 4 &
G |-----------------|-----------------|-----------------|-----------------|
D |---5-7-----------|-7-5-------------|---5-7-----------|-7-5-------------|
A |-5---------------|-----7-----------|-5---------------|-----7-----------|
E |-------5---------|-------3---------|-------5---------|-------3---------|
  1 & 2 & 3 & 4 &  1 & 2 & 3 & 4 &  1 & 2 & 3 & 4 &  1 & 2 & 3 & 4 &
G |-----------------|-----------------|-----------------|-----------------|
D |---5-7-----------|-7-5-------------|---5-7-----------|----REST---------|
A |-5---------------|-----7-----------|-5---------------|-----------------|
E |-------5---------|-------3---------|-------5---------|-----------------|
  1 & 2 & 3 & 4 &  1 & 2 & 3 & 4 &  1 & 2 & 3 & 4 &  1 & 2 & 3 & 4 &
ⓘ Bass guitar tab for 'Fan Mail' by Blondie, a new wave band formed in 1974 from New York City, USA. Blondie is known for their happy punk music.

Almost there ...

Sign in to get your own page with links to favourite songs and more. You are just one click away...

Login with Facebook Login with Google