Log in

One click and you are in

Login with Facebook Login with Google

Why sign up and log in

Guitar Tabs Explorer
Blondie bass tabs for English boys

Bass tabs

🎸 Intro:

G|------------------------------------|
D|------------------------------------|
A|------------------------------------|
E|------11----11----11-----0----0----0|

G|------------------------------------|
D|------------------------------------|
A|------------------------------------|
E|-----11-----11-----11-----10--------|

🎸 Verse :

G|------------------------------------|
D|------------------------------------|
A|------------------------------------|
E|-3-3-3/-10-10-10--12-12-12--12-12-12|


G|------------------------------------|
D|------------------------------------|
A|------------------------------------|
E|--11-11-11--10-10-10--3-3-3/10-10-10|

G|------------------------------------|
D|------------------------------------|
A|------------------------------------|
E|-3-3-3/10-10-10--3-3-3--3-3-3-------|

G|------------------------------------|
D|------------------------------------|
A|------------------------------------|
E|-12-12-12--10-10-10-----------------|


[Chorus (does it feel the same to you…)
G|------------------------------------|
D|------------------------------------|
A|------------------------------------|
E|-8-8-8--10-10-10--8-8-8--10-10-10---|

G|------------------------------------|
D|------------------------------------|
A|------------------------------------|
E|8-8-8-10-10-10-8-8-8-0-0-2-2-3-3-5-5|

rest is as follows

intro again

verse

chorus


************************************

| / Slide up

************************************

ⓘ Bass guitar tab for 'English Boys' by Blondie, a new wave band formed in 1974 from New York City, USA. Blondie is known for their happy punk music.

Almost there ...

Sign in to get your own page with links to favourite songs and more. You are just one click away...

Login with Facebook Login with Google