Log in

One click and you are in

Login with Facebook Login with Google

Why sign up and log in

Guitar Tabs Explorer
Blondie bass tabs for Die young stay pretty

Bass tabs

std tuning
reggae style

intro
play this bit four times

G |---7----77---5--77-----------------|-----------------|-----------------|
D |-55-5-44--4----44|4----------------|-----------------|-----------------|
A |-----------77-7--|-----------------|-----------------|-----------------|
E |-----------------|-----------------|-----------------|-----------------|
  1 & 2 & 3 & 4 &  1 & 2 & 3 & 4 &  1 & 2 & 3 & 4 &  1 & 2 & 3 & 4 &
    A
G |-----------------|-----------------|-----------------|-----------------|
D |--------555------|-------555-------|-------555-------|--------555------|
A |------------33-5-|-----------33-5--|-----------33-5--|------------33-5-|
E |-33333-----------|33333------------|33333------------|-33333-----------|
  1 & 2 & 3 & 4 &  1 & 2 & 3 & 4 &  1 & 2 & 3 & 4 &  1 & 2 & 3 & 4 &
    B
G |-----------------|-----------------|-----------------|-----------------|
D |----------2------|-----------------|---------2-------|-----------------|
A |-33333------3----|---55555---------|-33333-----3-----|--55555----------|
E |--------------3--|-----------------|-------------3---|-----------------|
  1 & 2 & 3 & 4 &  1 & 2 & 3 & 4 &  1 & 2 & 3 & 4 &  1 & 2 & 3 & 4 &

G |-----------------|-----------------|-----------------|---2-------------|
D |---------2-------|-----------------|-----only play---|-4---4-----------|
A |-33333-----3-----|--55555----------|----this bit at--|-----------------|
E |-------------3---|-----------------|----repeat B-----|-----------------|
  1 & 2 & 3 & 4 &  1 & 2 & 3 & 4 &  1 & 2 & 3 & 4 &  1 & 2 & 3 & 4 &
repeat A
repeat B

G |-----------------|-----------------|-----------------|-----------------|
D |--5---4---2------|-----------------|-----------------|-----------------|
A |-----------------|-6---5---3-------|-----------------|-----------------|
E |-----------------|-----------------|-7---6---5-------|-----------------|
  1 & 2 & 3 & 4 &  1 & 2 & 3 & 4 &  1 & 2 & 3 & 4 &  1 & 2 & 3 & 4 &
repeat A
repeat B
repeat intro
repeat A twice to finish

ⓘ Bass guitar tab for 'Die Young Stay Pretty' by Blondie, a new wave band formed in 1974 from New York City, USA. Blondie is known for their happy punk music.

Almost there ...

Sign in to get your own page with links to favourite songs and more. You are just one click away...

Login with Facebook Login with Google