Log in

One click and you are in

Login with Facebook Login with Google

Why sign up and log in

Guitar Tabs Explorer
Blondie bass tabs for Denis

Bass tabs with lyrics

Tuning: Standard (E A D G)

Key: B

Difficulty: Novice
Gtr I (E A D G) - 'Chris Stein - Bass'

 Intro:
 Q=140
 4/4
 Gtr I
  E E E E E E E E  E E E E E E E E  E E E E E E E E  E E E E E E E E
G|-----------------|-----------------|-----------------|------------------||
D|---------2-2-2-2-|-1-1-1-1---------|---------2-2-2-2-|-1-1-1-1----------||
A|-2-2-2-2---------|---------4-4-4-4-|-2-2-2-2---------|---------4-4-4-4--||
E|-----------------|-----------------|-----------------|------------------||


 Chorus:
  E E E E E E E E  E E E E E E E E  E E E E E E E E  E E E E E E E E
G|-----------------|-----------------|-----------------|-----------------|
D|-----------------|-2-2-2-2-4-4-4-4-|---------------1-|-2-2-2-2-4-4-4-4-|
A|-2-2-2-2-2-2-2-2-|-----------------|-2-2-2-2-2-2-2---|-----------------|
E|-----------------|-----------------|-----------------|-----------------|


  E E E E E E E E  E E E E E E E E  W     +W
G|-----------------|-----------------|----------|--------||
D|-----------------|-2-2-2-2-4-4-4-4-|----------|--------||
A|-2-2-2-2-2-2-2-2-|-----------------|-2--------|-(2)----||
E|-----------------|-----------------|----------|--------||


 1st & 2nd Verses:
   E E E E E E E E  E E E E E E E E  E E E E E E E E  E E E E E E E E
G||------------------|-----------------|-----------------|------------------|
D||o-----------------|-2-2-2-2-4-4-4-4-|-----------------|-2-2-2-2-4-4-4-4--|
A||o-2-2-2-2-2-2-2-2-|-----------------|-2-2-2-2-2-2-2-2-|------------------|
E||------------------|-----------------|-----------------|------------------|

                            1.
  E E E E E E E E  E E E E E E E E  E E E E E E E E  E E E E E E E E
G|-----------------|-----------------|-----------------|------------------||
D|-----------------|-2-2-2-2-4-4-4-4-|---------2-2-2-2-|---------4-4-4-4-o||
A|-2-2-2-2-2-2-2-2-|-----------------|-2-2-2-2---------|-2-2-2-2---------o||
E|-----------------|-----------------|-----------------|------------------||


           Bridge:
 2.
  E E E E E E E E  E E E E E E E E  E E E E E E E E  E E E E E E E E
G|-----------------||-----------------|-----------------|-----------------|
D|-----------------||-----------------|-----------------|-----1-1-4-4-1---|
A|-2-2-2-2-2-2-2-2-||-----------------|-2-2-2-2-2-2-2-2-|-2-2-----------2-|
E|-----------------||-0-0-0-0-0-0-0-0-|-----------------|-----------------|


                   2/4    4/4
  E E E E E E E E  E E E E E E E E  E E E E  Q Q Q Q  W
G|-----------------|-----------------|---------|-------------|------||
D|-----------------|-----------------|---------|-------------|------||
A|-----------------|-----------------|-4-4-4-4-|-4--4--4--4--|------||
E|-0-0-0-0-0-0-0-0-|-0-0-0-0-0-0-0-0-|---------|-------------|-3----||


 3rd & 4th Verses:
   E E E E E E E E  E E E E E E E E  E E E E E E E E  E E E E E E E E
G||------------------|-----------------|-----------------|------------------|
D||o-----------------|-3-3-3-3-5-5-5-5-|-----------------|-3-3-3-3-5-5-5-5--|
A||o-3-3-3-3-3-3-3-3-|-----------------|-3-3-3-3-3-3-3-3-|------------------|
E||------------------|-----------------|-----------------|------------------|


  E E E E E E E E  E E E E E E E E  E E E E E E E E  E E E E E E E E
G|-----------------|-----------------|-----------------|------------------||
D|-----------------|-3-3-3-3-5-5-5-5-|---------3-3-3-3-|---------5-5-5-5-o||
A|-3-3-3-3-3-3-3-3-|-----------------|-3-3-3-3---------|-3-3-3-3---------o||
E|-----------------|-----------------|-----------------|------------------||


 Chorus:
  E E E E E E E E  E E E E E E E E  E E E E E E E E  E E E E E E E E
G|-----------------|-----------------|-----------------|-----------------|
D|---------------2-|-3-3-3-3-5-5-5-5-|---------------2-|-3-3-3-3-5-5-5-5-|
A|-3-3-3-3-3-3-3---|-----------------|-3-3-3-3-3-3-3---|-----------------|
E|-----------------|-----------------|-----------------|-----------------|


  E E E E E E E E  E E E E E E E E  W     +W
G|-----------------|-----------------|----------|--------||
D|---------------2-|-3-3-3-3-5-5-5-5-|----------|--------||
A|-3-3-3-3-3-3-3---|-----------------|-3--------|-(3)----||
E|-----------------|-----------------|----------|--------||


 Outro:
   E E E E E E E E  E E E E E E E E  E E E E E E E E  E E E E E E E E  4x
G||------------------|-----------------|-----------------|-------------------||
D||o---------------2-|-3-3-3-3-5-5-5-5-|---------------2-|-3-3-3-3-5-5-5-5--o||
A||o-3-3-3-3-3-3-3---|-----------------|-3-3-3-3-3-3-3---|------------------o||
E||------------------|-----------------|-----------------|-------------------||

************************************
Duration 🏷Legend

W - whole; H - half; Q - quarter; E - 8th; S - 16th; a - acciaccatura;
+ - note tied to previous; . - note dotted;
Duration letters will always appear directly above the note/fret number it represents the
duration for. Duration letters with no fret number below them represent rests.
Uncapitalized letters represent notes that are staccato (1/2 duration).

| (n) - note tied to previous
************************************
ⓘ Bass guitar tab for 'Denis' by Blondie, a new wave band formed in 1974 from New York City, USA. Blondie is known for their happy punk music.

Almost there ...

Sign in to get your own page with links to favourite songs and more. You are just one click away...

Login with Facebook Login with Google