Log in

One click and you are in

Login with Facebook Login with Google

Why sign up and log in

Guitar Tabs Explorer
Blondie bass tabs for Contact in red square

Bass tabs

std tuning ruski type rocker


INTRO
G |-----------------|-----------------|-----------------|-----------------|
D |-----------------|-----------------|-----------------|-----------------|
A |--REST-----------|-----------------|-----------------|-5---------------|
E |-----------------|-----------------|-----------------|-----------------|
  1 & 2 & 3 & 4 &  1 & 2 & 3 & 4 &  1 & 2 & 3 & 4 &  1 & 2 & 3 & 4 &
VERSE 1
G |-------------2---|-----------------|-------------2---|-----------------|
D |-----------4---4-|---------33------|-----------4---4-|---------33------|
A |---2-5-2-5-------|-------2----33---|---2-5-2-5-------|-------2----33---|
E |-3---------------|-0-2-3-----------|-3---------------|-0-2-3-----------|
  1 & 2 & 3 & 4 &  1 & 2 & 3 & 4 &  1 & 2 & 3 & 4 &  1 & 2 & 3 & 4 &

FILL
G |-----------------|-----------------|-----------------|-----------------|
D |-----------------|-----------------|-----------------|-----------------|
A |---------1-------|---------1-------|-----------------|-----------------|
E |-3---------------|-3---------------|-----------------|-----------------|
  1 & 2 & 3 & 4 &  1 & 2 & 3 & 4 &  1 & 2 & 3 & 4 &  1 & 2 & 3 & 4 &


VERSE 2
G |-------------2---|-----------------|-------------2---|-----------------|
D |-----------4---4-|---------33------|-----------4---4-|---------33------|
A |---2-5-2-5-------|-------2----33---|---2-5-2-5-------|-------2----33---|
E |-3---------------|-0-2-3-----------|-3---------------|-0-2-3-----------|
  1 & 2 & 3 & 4 &  1 & 2 & 3 & 4 &  1 & 2 & 3 & 4 &  1 & 2 & 3 & 4 &


PRE CHORUS
G |-----------------|-----------------|-----------------|-----------------|
D |-----------------|-----------------|-----------------|-----------------|
A |---------1-----1-|-----------------|-----------------|-----------------|
E |-3---------------|-----------------|-----------------|-----------------|
  1 & 2 & 3 & 4 &  1 & 2 & 3 & 4 &  1 & 2 & 3 & 4 &  1 & 2 & 3 & 4 &

CHORUS
G |-----------------|-----------------|-----------------|-----------------|
D |-----------------|-----------------|-----------------|-----------------|
A |-3-3-3-3---------|-1-1-1-1---------|---------1-1-1-1-|-33333-1-33333-65|
E |---------4-4-4-4-|---------1-1-1-1-|-4-4-4-4---------|-----------------|
  1 & 2 & 3 & 4 &  1 & 2 & 3 & 4 &  1 & 2 & 3 & 4 &  1 & 2 & 3 & 4 &
G |-----------------|-----------------|-----------------|-----------------|
D |-----------------|-----------------|-----------------|-----------------|
A |-3-3-3-3---------|-1-1-1-1---------|---------1-1-1-1-|-33333-1-33333-65|
E |---------4-4-4-4-|---------1-1-1-1-|-4-4-4-4---------|-----------------|
  1 & 2 & 3 & 4 &  1 & 2 & 3 & 4 &  1 & 2 & 3 & 4 &  1 & 2 & 3 & 4 &

FILL
G |-----------------|-----------------|-----------------|-----------------|
D |-----------------|-----------------|-----------------|-----------------|
A |---------5-------|-----------------|-----------------|-----------------|
E |-3---------------|-----------------|-----------------|-----------------|
  1 & 2 & 3 & 4 &  1 & 2 & 3 & 4 &  1 & 2 & 3 & 4 &  1 & 2 & 3 & 4 &


VERSE 3
G |-------------2---|-----------------|-------------2---|-----------------|
D |-----------4---4-|---------33------|-----------4---4-|---------33------|
A |---2-5-2-5-------|-------2----33---|---2-5-2-5-------|-------2----33---|
E |-3---------------|-0-2-3-----------|-3---------------|-0-2-3-----------|
  1 & 2 & 3 & 4 &  1 & 2 & 3 & 4 &  1 & 2 & 3 & 4 &  1 & 2 & 3 & 4 &

FILL
G |-----------------|-----------------|-----------------|-----------------|
D |-----------------|-----------------|-----------------|-----------------|
A |---------1-------|---------1-------|-----------------|-----------------|
E |-3---------------|-3---------------|-----------------|-----------------|
  1 & 2 & 3 & 4 &  1 & 2 & 3 & 4 &  1 & 2 & 3 & 4 &  1 & 2 & 3 & 4 &


CHORUS
G |-----------------|-----------------|-----------------|-----------------|
D |-----------------|-----------------|-----------------|-----------------|
A |-3-3-3-3---------|-1-1-1-1---------|---------1-1-1-1-|-33333-1-33333-65|
E |---------4-4-4-4-|---------1-1-1-1-|-4-4-4-4---------|-----------------|
  1 & 2 & 3 & 4 &  1 & 2 & 3 & 4 &  1 & 2 & 3 & 4 &  1 & 2 & 3 & 4 &
G |-----------------|-----------------|-----------------|-----------------|
D |-----------------|-----------------|-----------------|-----------------|
A |-3-3-3-3---------|-1-1-1-1---------|---------1-1-1-1-|-33333-1-33333---|
E |---------4-4-4-4-|---------1-1-1-1-|-4-4-4-4---------|--------------65-|
  1 & 2 & 3 & 4 &  1 & 2 & 3 & 4 &  1 & 2 & 3 & 4 &  1 & 2 & 3 & 4 &


ENDING
G |-----------------|-----------------|-----------------|-----------------|
D |-----------------|-----------------|-----------------|-----------------|
A |---------11111111|---------11111111|---------11111111|---------------1-|
E |-33333333--------|-33333333--------|-33333333--------|-1-1-1-1-33333---|
  1 & 2 & 3 & 4 &  1 & 2 & 3 & 4 &  1 & 2 & 3 & 4 &  1 & 2 & 3 & 4 &

G |-----------------|-----------------|-----------------|-----------------|
D |-----------------|-----------------|-----------------|-----------------|
A |---------11111111|---------------1-|-------1---------|-----------------|
E |-33333333--------|-1-1-1-1-33333---|-33333----REST---|-----1-3---------|
  1 & 2 & 3 & 4 &  1 & 2 & 3 & 4 &  1 & 2 & 3 & 4 &  1 & 2 & 3 & 4 &
ⓘ Bass guitar tab for 'Contact In Red Square' by Blondie, a new wave band formed in 1974 from New York City, USA. Blondie is known for their happy punk music.

Almost there ...

Sign in to get your own page with links to favourite songs and more. You are just one click away...

Login with Facebook Login with Google