Log in

One click and you are in

Login with Facebook Login with Google

Why sign up and log in

Guitar Tabs Explorer
Blondie tabs for Call me (Ver. 2)

Guitar tabs with lyrics

Tuning: Standard (E A D G B E)

Key: A chord diagramDmDm

Difficulty: Novice
Intro:
     A chord diagramDmDm       A chord diagramG+G  A chord diagramFF     A chord diagramDmDm        A chord diagramFF  A chord diagramC majorC
e|------------------------------------|
A chord diagramBB|------------8--6---------------6----|
A chord diagramG+G|---7~~~~~~~~7--5-----7~~~~~~~~-5--5-|
A chord diagramD MajorD|---7~~~~~~~~---------7~~~~~~~~----5-|
A chord diagramA augmentedA|------------------------------------|
A chord diagramE MajorE|------------------------------------|

   A chord diagramDmDm                          A chord diagramG+G  A chord diagramFF    A chord diagramDmDm                         A chord diagramFF  A chord diagramC majorC
e|---------------------------|-------|---------------------------------|
A chord diagramBB|---------------------------|-8--6--|----------------------------6----|
A chord diagramG+G|-5/7-7-7--5/7-7-7--5/7-7-7-|-7--5--|-5/7-7-7--5/7-7-7--5/7-7-7--5--5-|
A chord diagramD MajorD|-5/7-7-7--5/7-7-7--5/7-7-7-|-------|-5/7-7-7--5/7-7-7--5/7-7-7-----5-|
A chord diagramA augmentedA|---------------------------|-------|---------------------------------|
A chord diagramE MajorE|---------------------------|-------|---------------------------------|


Verse 1:
 A chord diagramDmDm                          A chord diagramBb majorBb
Color me your color, baby   Color me your car
Color me your color, darling I know who you are
 A chord diagramG+G                    A chord diagramA augmentedA
Come up off your     color chart
I know where you're coming from


Chorus:
      A chord diagramDmDm        A chord diagramFF            A chord diagramG+G          A chord diagramBb majorBb
Call me on the line Call me call me any anytime
      A chord diagramDmDm    A chord diagramFF            A chord diagramG+G           A chord diagramBb majorBb
Call me my love you can call me any day or night

      A chord diagramDmDm                         A chord diagramG+G  A chord diagramFF   A chord diagramDmDm                         A chord diagramFF  A chord diagramC majorC
   e|---------------------------|-------|---------------------------------|
   A chord diagramBB|---------------------------|-8--6--|----------------------------6----|
   A chord diagramG+G|-5/7-7-7--5/7-7-7--5/7-7-7-|-7--5--|-5/7-7-7--5/7-7-7--5/7-7-7--5--5-|
   A chord diagramD MajorD|-5/7-7-7--5/7-7-7--5/7-7-7-|-------|-5/7-7-7--5/7-7-7--5/7-7-7-----5-|
   A chord diagramA augmentedA|---------------------------|-------|---------------------------------|
   A chord diagramE MajorE|---------------------------|-------|---------------------------------|
Call me

Verse 2:
Cover me with kisses, baby Cover me with love
Roll me in designer sheets I'll never get enough
Emotions come I don't know why
Cover up love's alibi


Chorus:
Call me on the line Call me call me any anytime
Call me oh my love When you're ready we can share the wine

      A chord diagramDmDm                          A chord diagramG+G  A chord diagramFF    A chord diagramDmDm                         A chord diagramFF  A chord diagramC majorC
   e|---------------------------|-------|---------------------------------|
   A chord diagramBB|---------------------------|-8--6--|----------------------------6----|
   A chord diagramG+G|-5/7-7-7--5/7-7-7--5/7-7-7-|-7--5--|-5/7-7-7--5/7-7-7--5/7-7-7--5--5-|
   A chord diagramD MajorD|-5/7-7-7--5/7-7-7--5/7-7-7-|-------|-5/7-7-7--5/7-7-7--5/7-7-7-----5-|
   A chord diagramA augmentedA|---------------------------|-------|---------------------------------|
   A chord diagramE MajorE|---------------------------|-------|---------------------------------|
Call me

 Bridge:
     A chord diagramE minorEm                      A chord diagramB minorBm
e| |--------------------------------------------| |
A chord diagramBB|.|--------------------------------------------|.|
A chord diagramG+G| |-------------------------4~~~~~~~~~~~~~~~---| |
A chord diagramD MajorD| |-2~~~~~~~~~~~~~~~~~~~~~~~4~~~~~~~~~0~----0~~| |
A chord diagramA augmentedA|.|-2~~~~~~~~~~~~~~~~~~~~~~~2~~~~~0h2~-~0h2~~--|.|
A chord diagramE MajorE| |-0------------------------------------------| |
           Ooh, he speaks the     languages of love
     Ooh, amore, chiamami chiamami.

   A chord diagramFF                A chord diagramC majorC
   Oo, appelle-moi mon cherie, appelle-moi

    A chord diagramDmDm                        A chord diagramBb majorBb      A chord diagramG+G                                 A chord diagramA augmentedA
Anytime anyplace anywhere anyway Anytime anyplace anywhere any day, anyway


Solo:
e|-----------------------/7~~~~----------------------------------------------|
b|------------------------------10p8-7~~~~----10--8-7--10--8-7--7~~~~--------|
g|---------------------------------------------------------------------7-----|
A chord diagramD MajorD|----------------------------------------------------------------------9~~~-|
A chord diagramA augmentedA|---------------------------------------------------------------------------|
A chord diagramE MajorE|---------------------------------------------------------------------------|
 |                                                                           |
e|---------------------------------------------------------------------------|
b|---------------------------------------------------------------------------|
g|---------------0----0-----------------------------------------4------------|
A chord diagramD MajorD|----0----0--0h2--0h2----2-------------------------------------4------------|
A chord diagramA augmentedA|-0h2--0h2---------------2-------------------------------------2------------|
A chord diagramE MajorE|------------------------0--------------------------------------------------|
                          A chord diagramE minorEm                                    A chord diagramB minorBm

e|-----------------------/7~~~~--------/14~~~--17--15-14--17--15-|14~~~~-----|
b|------------------------------10p8-7---------------------------|----15-----|
g|---------------------------------------------------------------|------16~~~|
A chord diagramD MajorD|---------------------------------------------------------------|-----------|
A chord diagramA augmentedA|---------------------------------------------------------------|-----------|
A chord diagramE MajorE|---------------------------------------------------------------|-----------|
 |                                                                           |
e|---------------------------------------------------------------|-----------|
b|---------------------------------------------------------------|-----------|
g|---------------------------------------------------------------|4----------|
A chord diagramD MajorD|----0----0--------------2--------------------------------------|4----------|
A chord diagramA augmentedA|-0h2--0h2---------------2--------------------------------------|2----------|
A chord diagramE MajorE|------------------------0--------------------------------------|-----------|
                          A chord diagramE minorEm                                      A chord diagramB minorBm

e|--------------------/17~~~~15/13-13~~~~------------------|-----------------|
b|----------------------------------------10-11-13--10-11--|1313~~~-11p10----|
g|---------------------------------------------------------|-------------12~~|
A chord diagramD MajorD|---------------------------------------------------------|-----------------|
A chord diagramA augmentedA|---------------------------------------------------------|-----------------|
A chord diagramE MajorE|---------------------------------------------------------|-----------------|
 |                                                                           |
e|---------------------------------------------------------|-----------------|
b|---------------------------------------------------------|-----------------|
g|---------------------------------------------------------|5----------------|
A chord diagramD MajorD|----0----0----------3------------------------------------|5----------------|
A chord diagramA augmentedA|-0h2--0h2-----------3------------------------------------|3----------------|
A chord diagramE MajorE|--------------------1------------------------------------|-----------------|
                      A chord diagramFF                                     A chord diagramC majorC

e|----------------------------10h12h|13--12h13p12-10~~~~---------------------|
b|------------------10h13h15--------|----------------------------------------|
g|-10~~~--10h12h14------------------|----------------------------------------|
A chord diagramD MajorD|----------------------------------|----------------------------------------|
A chord diagramA augmentedA|----------------------------------|----------------------------------------|
A chord diagramE MajorE|----------------------------------|----------------------------------------|
 |                                                                           |
e|----------------------------------|----------------------------------------|
b|-2--------------------------------|----------------------------------------|
g|-3--------------------------------|3---------------------------------------|
A chord diagramD MajorD|-0--------------------------------|3---------------------------------------|
A chord diagramA augmentedA|----------------------------------|1---------------------------------------|
A chord diagramE MajorE|----------------------------------|----------------------------------------|
   A chord diagramDmDm                                A chord diagramBb majorBb

e|-10--12-13~~~-12h13p12-10~~~------------------------------|-12~~~----------|
b|---------------------------13--12~~~~--12h13h15--12h13h15-|----------------|
g|----------------------------------------------------------|----------------|
A chord diagramD MajorD|----------------------------------------------------------|----------------|
A chord diagramA augmentedA|----------------------------------------------------------|----------------|
A chord diagramE MajorE|----------------------------------------------------------|----------------|
 |                                                                           |
e|----------------------------------------------------------|----------------|
b|----------------------------------------------------------|----------------|
g|----------------------------------------------------------|-2-------2--5---|
A chord diagramD MajorD|----5-----------------------------------------------------|-2-------2--5---|
A chord diagramA augmentedA|----5-----------------------------------------------------|-0-------0--3---|
A chord diagramE MajorE|----3-----------------------------------------------------|----------------|
      A chord diagramG+G


Chorus:
      A chord diagramDmDm          A chord diagramFF            A chord diagramG+G               A chord diagramBb majorBb
Call me my       life Call me call me any      anytime
Call me for a    ride Call me call me for some overtime
Call me in my    life Call me call me in a   sweet design
Call me  call    me For your  lover's lover's  alibi
Call me my       life Call me call me any      anytime
Call me Oh, call me, ooh       ooh ah Call me my love.

fade out


************************************

| ~  Vibrato
| /  Slide up
| h  Hammer-on
| p  Pull-off

************************************
ⓘ This is the 2nd version of guitar tab for 'Call Me' by Blondie, a new wave band formed in 1974 from New York City, USA. Blondie is known for their happy punk music.

Other versions of Call Me

Call meTabs

Almost there ...

Sign in to get your own page with links to favourite songs and more. You are just one click away...

Login with Facebook Login with Google