Log in

One click and you are in

Login with Facebook Login with Google

Why sign up and log in

Guitar Tabs Explorer
Blondie bass tabs for 11.59

Bass tabs

std tuning
11.59

intro
play this bit 4 times
G |-----------------|-----------------|-----------------|-----------------|
D |-------------4---|-----------------|-----------------|-----------------|
A |-666666666666-6--|---------77------|-----------------|-----------------|
E |---------------44444444-77---------|-----------------|-----------------|
  1 & 2 & 3 & 4 &  1 & 2 & 3 & 4 &  1 & 2 & 3 & 4 &  1 & 2 & 3 & 4 &
then this bit to slow things down
G |-----------------|-----------------|-----------------|-----------------|
D |-----------------|-----------------|-----------------|-----------------|
A |-7-6-7-6---------|-----------------|-----------------|-----------------|
E |-----------------|-----------------|-----------------|-----------------|
  1 & 2 & 3 & 4 &  1 & 2 & 3 & 4 &  1 & 2 & 3 & 4 &  1 & 2 & 3 & 4 &

verse
more sedate than intro
play this bit two times
G |-----------------|-----------------|-----------------|-----------------|
D |-----------------|-----------------|-----------------|-----------------|
A |-----------------|-66------==------|-77-------44-----|-----------------|
E |-77-------44-----|----------44-----|-----------------|--77-----77------|
  1 & 2 & 3 & 4 &  1 & 2 & 3 & 4 &  1 & 2 & 3 & 4 &  1 & 2 & 3 & 4 &

chorus
tempo goes back up

G |-----------------|-----------------|-----------------|-----------------|
D |-44----44--------|-----------------|44---44----------|--------------4--|
A |---4-6---4-6-----|77--764----------|--4-6--4-6-77--764----------6666---|
E |-----------------|-------7---------|-----------------|-6666-7777-------|
  1 & 2 & 3 & 4 &  1 & 2 & 3 & 4 &  1 & 2 & 3 & 4 &  1 & 2 & 3 & 4 &

repeat verse and chorus
then

G |-----------------|-----------------|-----------------|-----------------|
D |44444444444444444444444444444444---|-----------------|-----------------|
A |-----------------|-----------------|-----------------|-----------------|
E |-----------------|-----------------|-----------------|-----------------|
  1 & 2 & 3 & 4 &  1 & 2 & 3 & 4 &  1 & 2 & 3 & 4 &  1 & 2 & 3 & 4 &
keyboard solo

keyboard solo is same as verse
then

G |-----------------|-----------------|-----------------|-----------------|
D |-----------------|-----------------|-----------------|-----------------|
A |-99999999999999999999999999999999--|-----------------|-----------------|
E |-----------------|-----------------|-----------------|-----------------|
  1 & 2 & 3 & 4 &  1 & 2 & 3 & 4 &  1 & 2 & 3 & 4 &  1 & 2 & 3 & 4 &

verse 3

note the change of key
play this bit twice
G |-----------------|-----------------|-----------------|-----------------|
D |-----------------|-----------------|-----------------|-----------------|
A |-----------------|-88--------------|-99------66------|-----------------|
E |-99------66------|---------66------|-----------------|-99------99------|
  1 & 2 & 3 & 4 &  1 & 2 & 3 & 4 &  1 & 2 & 3 & 4 &  1 & 2 & 3 & 4 &

chorus

note the change of key to previous chorus
play this bit twice
G |-----------------|-----------------|-----------------|-----------------|
D |-66---66---------|-----------------|-----------------|-----------------|
A |---6-8--6-8-99-9-|8-6--------------|-----------------|-----------------|
E |-----------------|---9-------------|-----------------|-----------------|
  1 & 2 & 3 & 4 &  1 & 2 & 3 & 4 &  1 & 2 & 3 & 4 &  1 & 2 & 3 & 4 &
then his
G |-----------------|-----------------|-----------------|-----------------|
D |-----------------|6----------------|-----------------|-----------------|
A |----------8888---|-----------------|-----------------|-----------------|
E |-8888-9999-------|-----------------|-----------------|-----------------|
  1 & 2 & 3 & 4 &  1 & 2 & 3 & 4 &  1 & 2 & 3 & 4 &  1 & 2 & 3 & 4 &

then this to play out

G |-----------------|-----------------|-----------------|-----------------|
D |-----------------|-----------------|-----------------|-----------------|
A |-44--44----------|-44--44----------|4444-4444--------|4444-4444--------|
E |---------44--44--|---------44---44-|---------4444-4444---------4444-4444

done

ⓘ Bass guitar tab for '11.59' by Blondie, a new wave band formed in 1974 from New York City, USA. Blondie is known for their happy punk music.

Almost there ...

Sign in to get your own page with links to favourite songs and more. You are just one click away...

Login with Facebook Login with Google