Log in

One click and you are in

Login with Facebook Login with Google

Why sign up and log in

Guitar Tabs Explorer
Blondes bass tabs for Coming of age

Bass tabs

Tuning: Standard (E A D G)


Intro- No bass:

G|---------------------------------------------------------------------------|
D|---------------------------------------------------------------------------|
A|---------------------------------------------------------------------------|
E|---------------------------------------------------------------------------|
Verse 1-0:14-2:21:

G|---------------------------------------------------------------------------|
D|-------------------------4-4-4-4-----------------------------4-4-4-4-------|
A|-5-5-5-5-5-5-5-5-5-5-5-5-------------5-5-5-5-5-5-5-5-5-5-5-5---------------|
E|---------------------------------------------------------------------------|

G|---------------------------------------------------------------------------|
D|-------------------------2-2-2-2-------------------------2-2-2-2-----------|
A|-3-3-3-3-3-3-3-3-3-3-3-3---------3-3-3-3-3-3-3-3-3-3-3-3-------------------|
E|---------------------------------------------------------------------------|



Pre Bridge- 3:01-3:04:

G|-----------------|
D|-----------------|
A|------2---(hold)-|
E|-----------------|


Bridge-2:22-3:00:

G|------------------------------------------------------------------|
D|-2-2-2---2-2-2---2-2-2--2-2-2-------------------------------------|
A|------2-------2-------2------2----7-7-7---7-7-7----7-7-7---7-7-7--|
E|----------------------------------------7-------7--------7------7-|

G|--------------------------------------------------------------|
D|-2-2-2---2-2-2---2-2-2---2-2-2--------------------------------|
A|-------2------2--------2-------7-7-7---7-7-7----7-7-7---7-7-7-|(x2)
E|-------------------------------------7-------7--------7-------|


Post Bridge- 3:01-3:04:

G|-----------------|
D|-----------------|
A|------5----------|
E|-----------------|


Verse-3:05-End:

G|---------------------------------------------------------------------------|
D|-------------------------4-4-4-4-----------------------------4-4-4-4-------|
A|-5-5-5-5-5-5-5-5-5-5-5-5-------------5-5-5-5-5-5-5-5-5-5-5-5---------------|
E|---------------------------------------------------------------------------|

G|---------------------------------------------------------------------------|
D|-------------------------2-2-2-2-------------------------2-2-2-2-----------|
A|-3-3-3-3-3-3-3-3-3-3-3-3---------3-3-3-3-3-3-3-3-3-3-3-3-------------------|
E|---------------------------------------------------------------------------|

************************************

ⓘ Bass guitar tab for 'Coming Of Age' by Blondes, an electronic band from New York City

Almost there ...

Sign in to get your own page with links to favourite songs and more. You are just one click away...

Login with Facebook Login with Google