Log in

One click and you are in

Login with Facebook Login with Google

Why sign up and log in

Guitar Tabs Explorer
Blonde Redhead bass tabs for Pier paolo

Bass tabs

PIER PAOLO - Blonde Redhead
-------------------------------------------------------------------------------

Tabbed By : Gustavo Collado

Tuning: EADG


Intro

G|-----------|
D|-----------|
A|-----------|
E|-7-7/2-3-2-|

G|----------------------------|
D|----------------------------| X4
A|-2-22-22/4-44-44/5-55/9-7-5-|
E|----------------------------|


Verse 1
(I turn to you, young man, poet, insane...)

G|-------------|
D|-------------| X2
A|-2-4-5-9-7-5-|
E|-------------|

G|----------------|
D|----------------|
A|-4-2-7-77-9-7-5-|
E|----------------|

G|----------------------------|
D|----------------------------| X2
A|-2-22-22/4-44-44/5-55/9-7-5-|
E|----------------------------|


Verse 2
(Today you're in my way, eighteen a promising age...)

G|-------------|
D|-------------| X2
A|-2-4-5-9-7-5-|
E|-------------|

G|----------------|
D|----------------|
A|-4-2-7-77-9-7-5-|
E|----------------|

G|----------------------------|
D|----------------------------| X5
A|-2-22-22/4-44-44/5-55/9-7-5-|
E|----------------------------|

G|---------------------------|
D|---------------------------|
A|-2-22-22/4-44-44/5-55/9-99-|
E|---------------------------|


Chorus 1
(A place in the world, an expression...)

G|-------------------------|
D|-------------------------| X2
A|-2-4-5-7-9-(0)-----------|
E|---------------3-3-3-3-2-|

G|-----------------------------|
D|-----------------------------|
A|-------------2-2-2-2---------|
E|-(2)-0-0-0-0---------0-0-3-2-|

G|----------------------------|
D|----------------------------| X4
A|-2-22-22/4-44-44/5-55/9-7-5-|
E|----------------------------|


Verse 3
(Unknown and uninvited, as for me my life today...)

G|-------------|
D|-------------| X2
A|-2-4-5-9-7-5-|
E|-------------|

G|----------------|
D|----------------|
A|-4-2-7-77-9-7-5-|
E|----------------|

G|----------------------------|
D|----------------------------| X2
A|-2-22-22/4-44-44/5-55/9-7-5-|
E|----------------------------|


Verse 4
(I pray to you, I pray, I am here alone with you...)

G|-------------|
D|-------------| X2
A|-2-4-5-9-7-5-|
E|-------------|

G|----------------|
D|----------------|
A|-4-2-7-77-9-7-5-|
E|----------------|

G|----------------------------|
D|----------------------------| X5
A|-2-22-22/4-44-44/5-55/9-7-5-|
E|----------------------------|

G|---------------------------|
D|---------------------------|
A|-2-22-22/4-44-44/5-55/9-99-|
E|---------------------------|


Chorus 2
(A place in the world, an expression...)

G|-------------------------|
D|-------------------------| X2
A|-2-4-5-7-9-(0)-----------|
E|---------------3-3-3-3-2-|

G|----------------------|
D|----------------------|
A|----------------------|
E|-(2)-0r-0h/7r-7/0-3-2-|

G|----------------------------|
D|----------------------------| X16
A|-2-22-22/4-44-44/5-55/9-7-5-|
E|----------------------------|

G|-------|
D|-------|
A|-9r----|
ⓘ Bass guitar tab for 'Pier Paolo' by Blonde Redhead, an alternative rock band formed in 1993 from New York, USA

Almost there ...

Sign in to get your own page with links to favourite songs and more. You are just one click away...

Login with Facebook Login with Google