Log in

One click and you are in

Login with Facebook Login with Google

Why sign up and log in

Guitar Tabs Explorer
Blonde Redhead bass tabs for For the damaged coda

For The Damaged Coda bass tab by Blonde Redhead

Blonde Redhead bass tabs for For the damaged coda

Bass tabs

Tuning: Standard (E A D G)

Key: Db

Difficulty: Advanced

Anything with a . before it tap with your left hand, if it has nothing before it,
use your right hand to tap.
Intro:

G|------------------------------------------------------------------------------|
D|------8----8---8----8---8----8---8----8---8---6---6---6---6---6---6---6---6---|
A|---.4---10--.4---10--.4---10--.4---10--.3---8--.3---8--.3---8--.3---8---6-----|
E|------------------------------------------------------------------------------|

G|---------------------------------------|
D|----.6--.6--.6--.6---9----9---9----9---|
A|--.5---8--.5---8--.5---11--.5---11-----|
E|---------------------------------------|


Verse:

G|---17----17------15----15----13----13------12----12------|
D|------17----17------15----15----15----15------15----13---|
A|--.3----------.4------------.3----------.5---------------|
E|---------------------------------------------------------|

G|---8----------8----------7--------7----------|
D|-----10----10---10----10----8---8---9----9---|
A|--------10---------10---------8--.2---10-----|
E|--.11--------.11--------.10------------------|


Chorus:

G|-----------17-15----13----12----13----12------------|
D|-----------------15----15----13----13----13-15-13---|
A|----.10-18----------------------------.2------------| x2
E|--.8---------.10---------.11------------------------|

G|-------------12-------------------12------------------12--------------|
D|------.10--------.10-13----.10--------.10-13----.10---------.10-13----|
A|----------------------------------------------------------------------|
E|--.8------.8---.8-------.8-----.8---.8-------.8----.8----.8-----------|

G|----------.5----.5--------.4----.4----.7----10-.7--------|
D|----------------------------------------------------13---|
A|------6--------6------5--------5-------------------------|
E|---.4--.4---.4-----.3--.3---.3------.7--.7-------.7------|

G|-----------17-15----13----12----13----12------------|
D|-----------------15----15----13----13----13-15-13---|
A|----.10-18----------------------------.2------------| x2
E|--.8---------.10---------.11------------------------|

G|-------------12-------------------12------------------12--------------|
D|------.10--------.10-13----.10--------.10-13----.10---------.10-13----|
A|----------------------------------------------------------------------|
E|--.8------.8---.8-------.8-----.8---.8-------.8----.8----.8-----------|

G|----------.5----.5--------.4----.4----.7----10-.7--------|
D|----------------------------------------------------13---|
A|------6--------6------5--------5-------------------------|
E|---.4--.4---.4-----.3--.3---.3------.7--.7-------.7------|


Outro:

G|---------------10-10-12----------------10-10-12------|
D|---10-10-12-13----------13-10-10-12-13----------13---|
A|--.3----------.5----------.4----------.2-------------|
E|-----------------------------------------------------|

G|---------------10-10-12----------------10-10-12------|
D|---10-10-12-13----------13-10-10-12-13----------13---|
A|--.3-------------------------------------------------| x4
E|-----------------------------------------------------|

G|--------|
D|---10---|
A|---.3---|
E|--------|
ⓘ Bass guitar tab for 'For The Damaged Coda' by Blonde Redhead, an alternative rock band formed in 1993 from New York, USA

Almost there ...

Sign in to get your own page with links to favourite songs and more. You are just one click away...

Login with Facebook Login with Google