Log in

One click and you are in

Login with Facebook Login with Google

Why sign up and log in

Guitar Tabs Explorer
Blonde Redhead guitar tabs for For the damaged coda (Ver. 2)

For The Damaged Coda tab by Blonde Redhead (Ver. 2)

Blonde Redhead guitar tabs for For the damaged coda (Ver. 2)

Guitar tabs

Tuning: Standard (E A D G B E)


Intro:

e|---------------------------------------------------------------------------|
B|---------------------------------------------------------------------------|
G|---3-0-3---3-0-3---3-0-3---3-0-3---1---1---1---1---1---1---1---1---1---1---|
D|-------------------------------------3-------3-------3-------3---0---1-----|
A|-4-------4-------4-------4-------3-------3-------3-------3-----------------|
E|---------------------------------------------------------------------------|

Verse 1:

e|------------------8-3-6-3-6-1-6-1-4-1-4-1-3-1-3----------------------------|
B|---0---0---0---0--------------------------------3-4-1---1-4-1---1-3-------3|
G|-----1-------1----------------------------------------1-------1-----3---3--|
D|-0-------0------------------------------------------------------------3----|
A|---------------------------------------------------------------------------|
E|---------------------------------------------------------------------------|


Chorus:

e|-------------------3-8-6---4----3---4---3---1-------3-8-6---4-----3---4---3|
B|-0---0---------1-4----------------------------4--1-------------------------|
G|---0-----------------------------------------------------------------------|
D|---------------------------------------------------------------------------|
A|---------------------------------------------------------------------------|
E|---------------------------------------------------------------------------|

e|1---------3------3------3-------4------3--------1----------3-8-6---4----3-4|
B|--4---------1------1------1-------1------0--------3-4----1-----------------|
G|---------------------------------------------------------------------------|
D|---------------------------------------------------------------------------|
A|---------------------------------------------------------------------------|
E|---------------------------------------------------------------------------|

e|-3-1---------3-8-6---4--3-4-3-1--------3-------3--------3-------4-------3--|
B|-----4-----1--------------------4--------1-------1--------1-------1-------0|
G|---------------------------------------------------------------------------|
D|---------------------------------------------------------------------------|
A|---------------------------------------------------------------------------|
E|---------------------------------------------------------------------------|

e|-1-------3-8-6----4-----3--4--3--1--------3-8-6---4------3--4--3--1--------|
B|---3-4-1---------------------------4----1---------------------------4-1-1-3|
G|---------------------------------------------------------------------------|
D|---------------------------------------------------------------------------|
A|---------------------------------------------------------------------------|
E|---------------------------------------------------------------------------|


Ending:

e|---1-1-3-----------1-1-3-----------1-1-3-----------1-1-3--------------1-1-3|
B|-4-------4-1-1-3-4-------4-1-1-3-4-------4-1-1-3-4-------4----1-1-3-4------|
G|---------------------------------------------------------------------------|
D|---------------------------------------------------------------------------|
A|---------------------------------------------------------------------------|
E|---------------------------------------------------------------------------|

e|-----------1-1-3---------------1--1--3------------------1--1--3------------|
B|-4-1-1-3-4-------4--1--1--3--4----------4----1--1--3--4----------4--1~~~~--|
G|---------------------------------------------------------------------------|
D|---------------------------------------------------------------------------|
A|---------------------------------------------------------------------------|
E|---------------------------------------------------------------------------|

Other versions of For The Damaged Coda

For the damaged codaTabs

↓ Add and view comments below ↓

What do you think about this song and these tabs?

Add your comments, questions, rant or a thumbs up below.

Almost there ...

Sign in to get your own page with links to favourite songs and more. You are just one click away...

Login with Facebook Login with Google