Log in

One click and you are in

Login with Facebook Login with Google

Why sign up and log in

Guitar Tabs Explorer
Bloc Party bass tabs for Version 20

Bass tabs

Verse
G|------------------------------------|
D|------------------------------------|
A|--7---------------7----------------7|
E|00--------------00---------------00-|

G|-----------------------|
D|-----------------------|
A|--7777775--------------|
E|00-------753h5555557777|
Chorus
G|------------------------------------------------------------|
D|------------------------------------------55---------55-55-5|
A|777777777777755533333333333330000000000000--333333333--3--3-|
E|------------------------------------------------------------|

Pre-Verse
G|------------------------------------------------------------------|
D|------------------------------------------------------------------|
A|------------------------------------------------------------------|
E|00x------------------------------00x------------------------------|


Verse 2
G|------------------------------------------------------------------------|
D|------------------------------------------------------------------------|
A|--7---------------7---------------7777775---------77777775--------------|
E|00--------------00--------------00-------753h5--00--------753h5555557777|


Chorus
Same as before only keep playing 3 on A for 6 beats afterwards.


Solo
G|-------------------------------------------------------------------------|
D|----------------------5-7--------------------10-9-7-5-7-9--12-10-9-7-9-10|
A|77--7-9-10-9-7-5-33-------77--7-9-10-9-7-5-33----------------------------|
E|---------------------3-5-------------------------------------------------|

G|9-9-9-9-11-12-11-9-7-5-5-55-7-9-7-5-4-2-2-2-2-4-5-4-2------|
D|------------------------------------------------------5----|
A|-7-7------------------3-3--------------0-0--------------0--|
E|-----------------------------------------------------------|


Chorus


Outro
G|--------------------------------------|
D|--------------------------------------|
A|33---33---33---33---33---33---7~------|

Almost there ...

Sign in to get your own page with links to favourite songs and more. You are just one click away...

Login with Facebook Login with Google