Log in

One click and you are in

Login with Facebook Login with Google

Why sign up and log in

Guitar Tabs Explorer
Bloc Party tabs for Song for clay disappear here

Guitar tabs

if anyone figures out the chorus, please post!


Intro (Kele)

Play these chords, all are whole notes except for A chord diagramG#G# and A chord diagramF#F# which are 1/2 notes.

A chord diagramA#A# A chord diagramFF A chord diagramC#C# A chord diagramG#G# A chord diagramF#F# x4

Then play this

|---1----|
|--2-2---|
|-3------| x12
|--------|
|--------|
|--------|

Then Russell comes in with this:

|--------------------------------------|
|--------------------------------------|
|--------------------------------------| x4
|-------------------111111-------------|
|-8\--111341------------------44--33---|
|-----------22224444------1-22--44-----|

Kele plays the same thing for the last 2


Verse (Kele)

|---1----|
|--2-2---|
|-3------| x32
|--------|
|--------|
|--------|

Chorus

?

Interlude

Russel solos based off the 6th fret (A chord diagramA#A#) while Kele plays this:

|---1----|
|--2-2---|
|-3------| x8
|--------|
|--------|
|--------|


Verse (Kele)

|---1----|
|--2-2---|
|-3------| x32
|--------|
|--------|
|--------|


Bridge

I think the backgroudn notes are synth...

|----------|
|----------|
|-3333-3---|
|-3333-3---|
|-1111-1---|
|-1111-1---|

then play this to lead into the final chorus:

|--------|
|--------|
|-3333---| x4
|-3333---|
|-1111---|
|-1111---|


Chorus

?


Outro (Russell)

|--------------------------------------|
|--------------------------------------|
|--------------------------------------| x4
|-------------------111111-------------|
|-8\--111341------------------44--33---|
|-----------22224444------1-22--44-----|

Kele mimics it for the last 2

Other versions of Song For Clay Disappear Here

Song for clay disappear hereChords

Almost there ...

Sign in to get your own page with links to favourite songs and more. You are just one click away...

Login with Facebook Login with Google