Log in

One click and you are in

Login with Facebook Login with Google

Why sign up and log in

Guitar Tabs Explorer
Bloc Party tabs for Signs

Guitar tabs

or something.

e-----------------|
b-----------------|
g-6-8-6-8-9-8-6-8-|
d-----------------|
a-----------------|
e-----------------|

e----------------|
b----------------|
g13--11---14--9--|
d----------------|
a----------------|
e----------------|

the bass and the strings play this almost all the way through
g----------------|
d----------------|
a----------------|
e-9-7-5-0--------|

this is the little falling glock line
e9-7-4-2---------|
b-9-7-5-2--------|
g----------------|
d----------------|
a----------------|
e----------------|

this is the "at your funeral" melody that the strings play
e------------14----14-|
b14--16--17------17---|
g---------------------|
d---------------------|
a---------------------|
e---------------------|

e17--16--17------|
b------------17--|
g----------------|
d----------------|
a----------------|
e----------------|

e17--16--17--16--|
b----------------|
g----------------|
d----------------|
a----------------|
e----------------|

Other versions of Signs

SignsChords

Almost there ...

Sign in to get your own page with links to favourite songs and more. You are just one click away...

Login with Facebook Login with Google