Log in

One click and you are in

Login with Facebook Login with Google

Why sign up and log in

Guitar Tabs Explorer
Bloc Party bass tabs for Pioneers

Bass tabs

Album: Silent Alarm
Track: 8
Tabbist: Afibassist4k

Bass enters at 0:57
Verse:
G|--------------------------------------|
D|-2/444444444444444/5/7777777777777777-|
A|--------------------------------------|
E|--------------------------------------|

G|--------------------------------------|
D|-0h2h4444444444444--------------------|
A|------------------0h222222222222/4444-| do 4's second time only
E|--------------------------------------| x2


Chorus:
G|------------------------------------|
D|-77777777/99999999------------------|
A|------------------22222222/77777777-|
E|------------------------------------| x2

G|--------------------------------------------------------------| (second time only
D|-77777777/99999999------------------------------------ hit 10-| once and
A|----------------------7777/10-10-10-10-10-10-10-10-10---------| cut off)
E|------------------7777----------------------------------------| x2

Repeat Verse

Repeat Chorus without cut off


Bridge:
G|----------------------------------------------------------------------|
D|-4444444444444444444444444444444444444444444444444444444444444444-----|
A|----------------------------------------------------------------------|
E|----------------------------------------------------------------------|

(Breath In... Breath In...)
G|-----------------------------------------------------------------------|
D|-4444444444444444777-7-7--777-7-7--44444444/9999/1111111111111111-11---|
A|------------------------5--------5-------------------------------------|
E|-----------------------------------------------------------------------|


Ending:
G|-----------------------------------7---7------------------------------|
D|-14141414141414/12121212121212-7h99--99--9/12/141414-14---------------|
A|----------------------------------------------------------------------|
E|----------------------------------------------------------------------| x4

Almost there ...

Sign in to get your own page with links to favourite songs and more. You are just one click away...

Login with Facebook Login with Google