Log in

One click and you are in

Login with Facebook Login with Google

Why sign up and log in

Guitar Tabs Explorer
Bloc Party tabs for Marshals are dead

Guitar tabs

This is as best as i got it.
Listen to the song to get the timing right.
Please Comment
[EDITED]
--------------------------------|--------------------------|
--------------------------------|--------------------------|
--------------------------------|--------------------------|
-12-12-12-12-12-12-14-14-14-1414|-12-12-12-12-10-10-10-1010|  x6
-12-12-12-12-12-12-14-14-14-1414|-12-12-12-12-10-10-10-1010|
-10-10-10-10-10-10-12-12-12-1212|-10-10-10-10-8- 8- 8- 8--8|

                   12's and 14's               10's


Chorus thing

Rhythm
----------------------|-----------------|
----------------------|-----------------|
----------------------|-----------------|
-9-9-9-9-9-99-10-11-11|-9-9-9-9-9-99-7-6|
-9-9-9-9-9-99-10-11-11|-9-9-9-9-9-99-7-6|
-7-7-7-7-7-77-8- 9 -9 |-7-7-7-7-7-77-5-4|


Lead

------------------------------|---------------------------|
------------------------------|---------------------------|
-9--9--9--9--9--9-9--10--11-11| 9--9--9--9--9--9--9--8--7-|
-9--9--9--9--9--9-9--10--11-11| 9--9--9--9--9--9--9--8--7-|
(7)(7)(7)(7)(7)(7)(7)(8)(9)(9)|(7)(7)(7)(7)(7)(7)(7)(6)(5)|
------------------------------|---------------------------|

Bridge

Rhythm[Heavy Distortion]

----------------------------|------|----------------------------|Repeat
----------------------------|------|----------------------------|
-9--9-------7--7-------9--9-|9--7--|-7--7-------9--9-------7--7-|
-9--9-------7--7-------9--9-|-----9|-7--7-------9--9-------7--7-|
(9)(9)-----(7)(7)-----(9)(9)|------|(7)(7)-----(9)(9)-----(7)(7)|
----------------------------|------|----------------------------|


Lead
[semi-difficult to tab]
-----------------------------------------------------------------------------------|
----------------------------9-8-7--------------------------------------------------|
------7--9-------9--7-----7------9-7----7--9-----9--7----7--7----7--7----7--9------|
-----------------------------------------------------------------------------------|
-----------------------------------------------------------------------------------|
-----------------------------------------------------------------------------------|

--------------------------------------------------|
---------------------------12-----9---11-12---11-9|
9--9----9--9-----9--11--12------------------12----|
--------------------------------------------------|
--------------------------------------------------|
--------------------------------------------------|


Verse

Rhythm
----------------------|-----------------|
----------------------|-----------------|
----------------------|-----------------|
-9-9-9-9-9-99-10-11-11|-9-9-9-9-9-99-7-6|Repeat
-9-9-9-9-9-99-10-11-11|-9-9-9-9-9-99-7-6|
-7-7-7-7-7-77-8- 9 -9 |-7-7-7-7-7-77-5-4|
Lead
------------------------------|---------------------------|
------------------------------|---------------------------|
-9--9--9--9--9--9-9--10--11-11| 9--9--9--9--9--9--9--8--7-|Repeat
-9--9--9--9--9--9-9--10--11-11| 9--9--9--9--9--9--9--8--7-|
(7)(7)(7)(7)(7)(7)(7)(8)(9)(9)|(7)(7)(7)(7)(7)(7)(7)(6)(5)|
------------------------------|---------------------------|


Rhythm[repeat]

Lead


-------------------|
------8-77---9-8-77|
--77-------9-------|Repeat
-------------------|
-------------------|
-------------------|


Chorus

-----------------------------|
-----------------------------|
-----------------------------|
-10-10-10-10-10-12-10-11-11--|
-10-10-10-10-10-12-10-11-11--|
  8 -8- 8- 8- 8-10- 9 -9-----|

Breakdown
[ this might be wrong]
---5---5---5-6-5---5---5---5--7-5---|
-7---7---7-------7---7---7----------|
------------------------------------|Repeat
------------------------------------|
------------------------------------|
------------------------------------|


Solo
Lead
--7-(x6)-9-(x2)-10-(x6)-12-(x2)-7-(x6)-5-(x2)-2-(x8)--|
------------------------------------------------------|
------------------------------------------------------|
------------------------------------------------------|
------------------------------------------------------|
------------------------------------------------------|


--14~~-15~~-14~~-12~~-14~~-15~~--20~~-----------------|
------------------------------------------------------|
------------------------------------------------------|
------------------------------------------------------|
------------------------------------------------------|
------------------------------------------------------|


Cool Down
Lead
------------------------------|---------------------------|
------------------------------|---------------------------|
-9--9--9--9--9--9-9--10--11-11| 9--9--9--9--9--9--9--8--7-|
-9--9--9--9--9--9-9--10--11-11| 9--9--9--9--9--9--9--8--7-|
7---7--7--7--7--7-7---8---9--9|-7--7--7--7--7--7--7--6--5-|
------------------------------|---------------------------|

-------------------|
------8-77---9-8-77|
--77-------9-------|Repeat
-------------------|
-------------------|
-------------------|

Ryhthm [ he does something before this, but its massive effects and i can't decipher it]
--------|
--------|
--------|
------9-|Repeat
------9-|
------7-|

Almost there ...

Sign in to get your own page with links to favourite songs and more. You are just one click away...

Login with Facebook Login with Google