Log in

One click and you are in

Login with Facebook Login with Google

Why sign up and log in

Guitar Tabs Explorer
Bloc Party bass tabs for Halo

Bass tabs

G|--------------------------------|
D|555555559999999999999999--------|
A|----------------------------2222|
E|------------------------3333----|x2

Verse/Intro 2nd Part
G|-----------|
D|-----------|
A|77---333---|
E|--777---333|
Last part of verse
G|----------------|
D|----------------|
A|----------------|
E|7777777777777777|
Chorus
G|-----------------------------------------|
D|-----------------------------------------|
A|----------00--00--0------------00--00--0-|
E|00--00--02---------3-00--00--02---------3|

G|---------------------------------------------------------------|
D|---------------------------------------------------------------|
A|222222222222222200000000000000022222222222222220000000000000000|
E|---------------------------------------------------------------|


Bridge
G|--------------------------------------------------------|
D|-------------55-----------------------------------------|
A|7777777777777--33333333--------77777777777777--333333335|
E|-----------------------33333333-------------------------|

BreakdowN
This bit is the heavy part played after each little guitar riff.
G|--------|
D|--------|
A|--------|
E|700-00-0|x6 (Play 3 times, wait for guitar then play another 3 times)
Then this riff is played leading up to the other bit
G|----------|
D|----------|
A|3-2-----35|
E|----3-03--|

G|-------------------------------------------------|
D|-------------------------------------------------|
A|----2-3-2-------2-5-2-------2-3-2-------2-3333333|
E|0-3-------3-0-3-------3-0-3-------3-0-3----------|

Then back to the chorus to wrap up the song.

Almost there ...

Sign in to get your own page with links to favourite songs and more. You are just one click away...

Login with Facebook Login with Google