Log in

One click and you are in

Login with Facebook Login with Google

Why sign up and log in

Guitar Tabs Explorer
Blitzkid bass tabs for Lets go to the cemetary

Bass tabs

tuned to e flat

 the intro is played four times, it's the same as the chorus/verse, only faster.
let the notes ring for the intro and the chorus, not the verse
Gb----------------------------------|
Db----------------------------------|
Ab---22---------4444----------------|
Eb--------22------------------------|


verse (this is played 12 times)
Gb----------------------------------|
Db----------------------------------|
Ab----22-----------4444-------------|
Eb---------22-----------------------|
 chorus is the same as the verse, but you let the notes ring.
its is played four times
then go back into the verse
there is no bass behind the solo or the 'lets go' bit, but you play the chorus

Almost there ...

Sign in to get your own page with links to favourite songs and more. You are just one click away...

Login with Facebook Login with Google