Log in

One click and you are in

Login with Facebook Login with Google

Why sign up and log in

Guitar Tabs Explorer
Blink 182 guitar tabs for Not another christmas song

Guitar tabs

Tuning: Drop A chord diagramDbDb (A chord diagramDbDb A chord diagramAbAb A chord diagramDbDb A chord diagramGbGb A chord diagramBb majorBb A chord diagramEb MajorEb)


Intro:
eb|-------------------------------------------------------------------|
Bb|-------------------------------------------------------------------|
Gb|-------------------------------------------------------------------|
Db|--------2-2-3-3---------2-2-3-3---------2-2-3-3---------5-5-3-3-2--| (x2)
Ab|--3-3-3------------------------------------------------------------|
Db|----------------3-3-3-3---------0-0-0-0---------5-5-5-5------------|

Verse 1:
eb|-------------------|-------------------|-------------------|-------------------|
Bb|-------------------|-------------------|-------------------|-------------------|
Gb|-------------------|-------------------|-------------------|-------------------|
Db|----------5---5----|-------------------|-------------------|-------------------| (x4)
Ab|--3-3-3-3-3---3----|----------3---3----|----------0---0----|----------5---5----|
Db|-------------------|--3-3-3-3-3---3----|--0-0-0-0-0---0----|--5-5-5-5-5---5----|
PM   ^ ^ ^ ^             ^ ^ ^ ^             ^ ^ ^ ^             ^ ^ ^ ^


Chorus 1:
eb|-------------------------------------------------------------------|
Bb|-------------------------------------------------------------------|
Gb|-------------------------------------------------------------------|
Db|--------2-2-3-3---------2-2-3-3---------2-2-3-3---------5-5-3-3-2--|
Ab|--3-3-3------------------------------------------------------------|
Db|----------------3-3-3-3---------0-0-0-0---------5-5-5-5------------|

eb|-------------------------------------------------------------------|
Bb|-------------------------------------------------------------------|
Gb|-------------------------------------------------------------------|
Db|--------2-2-3-3---------2-2-3-3---------2-2-3-3--------------------|
Ab|--3-3-3-----------------------------------------2-2-2-2-2-2-2-3----|
Db|----------------3-3-3-3---------0-0-0-0----------------------------|

Post-Chorus 1:
eb|-------------------------------------------------------------------|
Bb|-------------------------------------------------------------------|
Gb|-------------------------------------------------------------------|
Db|--------2-2-3-3---------2-2-3-3---------2-2-3-3---------5-5-3-3-2--|
Ab|--3-3-3------------------------------------------------------------|
Db|----------------3-3-3-3---------0-0-0-0---------5-5-5-5------------|


Verse 2:
eb|-------------------|-------------------|-------------------|-------------------|
Bb|-------------------|-------------------|-------------------|-------------------|
Gb|-------------------|-------------------|-------------------|-------------------|
Db|----------5---5----|-------------------|-------------------|-------------------| (x4)
Ab|--3-3-3-3-3---3----|----------3---3----|----------0---0----|----------5---5----|
Db|-------------------|--3-3-3-3-3---3----|--0-0-0-0-0---0----|--5-5-5-5-5---5----|
PM   ^ ^ ^ ^             ^ ^ ^ ^             ^ ^ ^ ^             ^ ^ ^ ^


Chorus 2:
eb|-------------------------------------------------------------------|
Bb|-------------------------------------------------------------------|
Gb|-------------------------------------------------------------------|
Db|--------2-2-3-3---------2-2-3-3---------2-2-3-3---------5-5-3-3-2--|
Ab|--3-3-3------------------------------------------------------------|
Db|----------------3-3-3-3---------0-0-0-0---------5-5-5-5------------|

eb|-------------------------------------------------------------------|
Bb|-------------------------------------------------------------------|
Gb|-------------------------------------------------------------------|
Db|--------2-2-3-3---------2-2-3-3---------2-2-3-3--------------------|
Ab|--3-3-3-----------------------------------------2-2-2-2-2-2-2-3----|
Db|----------------3-3-3-3---------0-0-0-0----------------------------|


Post-Chorus 2:
eb|-------------------------------------------------------------------|
Bb|-------------------------------------------------------------------|
Gb|-------------------------------------------------------------------|
Db|--------2-2-3-3---------2-2-3-3---------2-2-3-3---------5-5-3-3-2--| (x2)
Ab|--3-3-3------------------------------------------------------------|
Db|----------------3-3-3-3---------0-0-0-0---------5-5-5-5------------|


Bridge:
eb|-------------------------------------------------------------------|
Bb|-------------------------------------------------------------------|
Gb|-------------------------------------------------------------------|
Db|--------2-2-3-3---------2-2-3-3---------2-2-3-3---------5-5-3-3-2--| (x4)
Ab|--3-3-3------------------------------------------------------------|
Db|----------------3-3-3-3---------0-0-0-0---------5-5-5-5------------|

eb|-------------------|-------------------|-------------------|-------------------|
Bb|-------------------|-------------------|-------------------|-------------------|
Gb|-------------------|-------------------|-------------------|-------------------|
Db|--5-5-5-5-5-5-5-5--|-------------------|-------------------|-------------------|
Ab|--3-3-3-3-3-3-3-3--|--3-3-3-3-3-3-3-3--|--0-0-0-0-0-0-0-0--|--5-5-5-5-5-3-3----|
Db|-------------------|--3-3-3-3-3-3-3-3--|--0-0-0-0-0-0-0-0--|--5-5-5-5-5-3-3----|

eb|-------------------|-------------------|-------------------|-------------------|
Bb|-------------------|-------------------|-------------------|-------------------|
Gb|-------------------|-------------------|-------------------|-------------------|
Db|--5-5-5-5-5-5-5-5--|-------------------|-------------------|-------------------|
Ab|--3-3-3-3-3-3-3-3--|--3-3-3-3-3-3-3-3--|--0-0-0-0-0-0-0-0--|-------------------|
Db|-------------------|--3-3-3-3-3-3-3-3--|--0-0-0-0-0-0-0-0--|-------------------|


Chorus 3:
eb|-------------------------------------------------------------------|
Bb|-------------------------------------------------------------------|
Gb|-------------------------------------------------------------------|
Db|--------2-2-3-3---------2-2-3-3---------2-2-3-3---------5-5-3-3-2--| (x2)
Ab|--3-3-3------------------------------------------------------------|
Db|----------------3-3-3-3---------0-0-0-0---------5-5-5-5------------|


************************************

| ^   Muted Notes
| PM  Palm mute

************************************

Not Another Christmas Song tab

Blink 182 guitar tabs for Not another christmas song “Not Another Christmas Song” is Blink-182's downer Christmas anthem. It features their trademark pop-punk guitar riffs. “Not Another Christmas Song” was released in December 2019.

Other versions of Not Another Christmas Song

Not another christmas songChords

Almost there ...

Sign in to get your own page with links to favourite songs and more. You are just one click away...

Login with Facebook Login with Google