Log in

One click and you are in

Login with Facebook Login with Google

Why sign up and log in

Guitar Tabs Explorer
Blink 182 bass tabs for Dammit

Bass tabs

Tuning: Standard (E A D G)


Intro:
G|---------------------------------------------|
D|---------------------------------------------|
A|-3--3-3-3-3------------0--0-0-0-0------------|x2
E|------------3--3-3-3-3------------1--1-1-1-1-|
Verse:
G|---------------------------------------------|
D|---------------------------------------------|
A|-3--3-3-3-3------------0--0-0-0-0------------|x10
E|------------3--3-3-3-3------------1--1-1-1-1-|


Chorus:
G|-----------------------------------------------------------------|
D|-----------------------------------------------------------------|
A|-3-3-3-3-3-3-3-3-----------------0-0-0-0-0-0-0-0-----------------|x2
E|-----------------3-3-3-3-3-3-3-3-----------------1-1-1-1-1-1-1-1-|


Verse:
G|---------------------------------------------|
D|---------------------------------------------|
A|-3--3-3-3-3------------0--0-0-0-0------------|x8
E|------------3--3-3-3-3------------1--1-1-1-1-|


Chorus:
G|-----------------------------------------------------------------|
D|-----------------------------------------------------------------|
A|-3-3-3-3-3-3-3-3-----------------0-0-0-0-0-0-0-0-----------------|x2
E|-----------------3-3-3-3-3-3-3-3-----------------1-1-1-1-1-1-1-1-|


Bridge/Solo
G|--------------|
D|----0---2---3-|
A|3-------------|x2
E|--------------|


Verse:
G|---------------------------------------------|
D|---------------------------------------------|
A|-3--3-3-3-3------------0--0-0-0-0------------|x4
E|------------3--3-3-3-3------------1--1-1-1-1-|

End
G|---|
D|---|
A|-3-|
E|---|

Other versions of Dammit

DammitBass tabs
Dammit-(Ver. 2)Bass tabs

Almost there ...

Sign in to get your own page with links to favourite songs and more. You are just one click away...

Login with Facebook Login with Google