Log in

One click and you are in

Login with Facebook Login with Google

Why sign up and log in

Guitar Tabs Explorer
Blind Melon guitar tabs for Vernie

Guitar tabs with lyrics

Tuning: Standard (E A D G B E)

Key: A chord diagramE MajorE

Difficulty: Intermediate


Intro:
    A chord diagramE5E5           A chord diagramA7A7            A chord diagramE MajorE             A chord diagramA7A7
  Gtr I (fuzz on)
e|----------------------------------------------------|
B|----------5-----2---2---------0-----5-----2---2-----|
G|------2/4---4-----------0---1---2/4---4-----------0-|
D|----------------------------------------------------|
A|--------------0---0---0-----------------0---0---0---|
E|-0--0---------------------0-------------------------|


   A chord diagramE MajorE             A chord diagramA7A7            A chord diagramD MajorD             A chord diagramBB
e|------------------------------------------------------|
B|-----0-----5-----2---2--------------------------------|
G|---1---2/4---4-----------0----------------------------|
D|-----------------------------4-4-4-4-4/5-1--1-1-1-1-1-|
A|---------------0---0---0---5-5-5-5-5-5/7-2--2-2-2-2-2-|
E|-0----------------------------------------------------|


Verse 1:
   A chord diagramE MajorE           A chord diagramA7A7            A chord diagramE MajorE           A chord diagramA7A7
e|------------------------------------------------------------------------|
B|---------5-----2---2-------------5---------2------2---------------------|
G|------/4---4-----------0------/4---4-2-----------------------------0----|
D|----------------------------2--------x----------------------------------|
A|-------------0---0---0---------------0---------0----------0-------------|
E|--0----------------------0----------------------------------------------|
 | Gtr II  (fuzz & tremolo on)          1            1        1
e|-v0--------0-0-------0-------------0------------------------------------|
B|-v0------3-----2_0-0---0---------3--------------------------------------|
G|-v1---/4---------------0------/4-----2^---(2)-----2^-----(2)^-----(2)_0-|
D|-v2---------------------------------------------------------------------|
A|-v2---------------------------------------------------------------------|
E|-v0----------------------0----------------------------------------------|

   A chord diagramE MajorE              A chord diagramA7A7            A chord diagramD MajorD             A chord diagramE MajorE
e|------------------------------------------------------------|
B|------------5-----2---2-------------------------------------|
G|-----1---/4---4-----------0---------------------------------|
D|-----2----------------------4---4-4-4-4-4-/6---6-6-6-6---6\-|
A|----------------0---0---0---5---5-5-5-5-5-/7---7-7-7-7---7\-|
E|-0----------------------------------------------------------|
 |
e|-------0------0-0-------0-----------2-----------------------|
B|------------3-----2---2---0-------3---3---------------------|
G|---------/4---------0-----0---2---------0-------------------|
D|---2------------------------0----------------6---6-6-6-6-6--|
A|------------------------------------------/7-7---7-7-7-7-7--|
E|-0----------------------------------------------------------|


 Chorus:
     A chord diagramA majorA          A chord diagramF#sus4F#7sus4       A chord diagramA majorA                A chord diagramF#sus4F#7sus4
e|-------------------------------------------------------|
B|-3_2---2-0----------------3__2-2-2-2-2-2-2-------------|
G|-----------1------3-3-3-3------------------------3---3-|
D|---2----------4-----4-4-4----2-2-2-2-2-2-2-4-------4---|
A|---0-------------------------0-0-0-0-0-0-0-------------|
E|-------------------------------------------------------|
 |
e|------------------0----------------------------0-------|
B|-------2-0----------0---0---^2-------2-0---------0---0-|
G|-----------1/---3-----------^2-----------1---3---------|
D|---2----------4-------4-----^2-------------4-------4---|
A|---0------------------------^0-------------------------|
E|-------------------------------------------------------|


   A chord diagramA majorA                A chord diagramF#sus4F#7sus4       A chord diagramE MajorE
e|------4-4-4-------------------0---------------------------------------|
B|-0__2-5-5-5-2-0---------------0---------------------------------------|
G|----------------1-------3---3-----------------------------------------|
D|----2-------------4-------4---2---------------------------------------|
A|----0-------------------------2---------------------------------------|
E|------------------------------0---------------------------------------|
 |
e|----------------------0-----------------------------------------------|
B|---^2---2---2-0---------0---0---x-15\12-12\--x-12\10-10\--x-7-7/9-9-9-|
G|---^2-----------1---3-----------x------------x------------x-----------|
D|---^2-------------4-------4-----x-12\-9--9\--x--9\-7--7\--x-4-4/6-6-6-|
A|---^0-----------------------------------------------------------------|
E|------------------------------0---------------------------------------|


  A chord diagramE MajorE
e|-0-------------------------------------------|
B|-0-------------------------------------------|
G|---------------------------------------------|
D|-2-------------------------------------------|
A|-2-------------------------------------------|
E|-0-------------------------------------------|
 |
e|---------------------------------------------|
B|---x-15\12-12\--x-12\10-10\--x-7-7-7/9-9-9-9-|
G|---x------------x------------x---------------|
D|---x-12\-9--9\--x--9\-7--7\--x-4-4-4/6-6-6-6-|
A|---------------------------------------------|
E|-0-------------------------------------------|


 Verse 2:
  A chord diagramE MajorE           A chord diagramA7A7
e|-------------------------|
B|---------5-----2---2-----|
G|------/4---4-----------0-|
D|-------------------------|
A|-------------0---0---0---|
E|-0-----------------------|
 |
e|----0------0-0-----0---0-|
B|---------3-------0---0---|
G|------/4-----------------|
D|-------------------------|
A|-------------------------|
E|-0-----------------------|


   A chord diagramE MajorE          A chord diagramA7A7
e|---------------------------------------------------------|
B|--------5----------2--------2----------------------------|
G|----/4----4-2----------------------------0---------------|
D|------------x--------------------------------------------|
A|------------0--------0---------0-------------------------|
E|-0-------------------------------------------------------|
 |               1                1          1
e|-----0------0--------------------------------------------|
B|----------3----------------------------------------------|
G|-------/4-----2^-----------(2)-2^-------(2)^-------(2)_0-|
D|---------------------------------------------------------|
A|---------------------------------------------------------|
E|-0-------------------------------------------------------|


   A chord diagramE MajorE            A chord diagramA7A7            A chord diagramD MajorD             A chord diagramE MajorE
e|----------------------------------------------------------|
B|----------5-----2---2-------------------------------------|
G|---1---/4---4-----------0---------------------------------|
D|---2----------------------4---4-4-4-4-4-/6---6-6-6-6---6\-|
A|--------------0---0---0---5---5-5-5-5-5-/7---7-7-7-7---7\-|
E|-0--------------------------------------------------------|
 |
e|-----0------0-0-----0---0-------2---2---------------------|
B|----------3-------0---0-----------------------------------|
G|-------/4-------------------2---------2--------1-1-1-1-1\-|
D|--------------------------0-------0------2-2-2-2-2-2-2-2\-|
A|----------------------------------------------------------|
E|-0--------------------------------------------------------|


 Chorus:
  A chord diagramA majorA              A chord diagramF#sus4F#7sus4       A chord diagramA majorA               A chord diagramF#sus4F#7sus4
e|--------------------------------------------------------|
B|-3_2------2-0---------------3_2-2-2-2-2-2-2-------------|
G|--------------1-----3-3-3-3-----------------------3---3-|
D|---2------------4-----4-4-4---2-2-2-2-2-2-2-4-------4---|
A|---0--------------------------0-0-0-0-0-0-0-------------|
E|--------------------------------------------------------|
 |
e|--------------------0---0-----------------------0---0---|
B|------2-2-2-0---------0---0-------2-2-2-0---------0---0-|
G|---2----------1---3-----------2-----------1---3---------|
D|---2------------4-------------2-------------4-----------|
A|---0--------------------------0-------------------------|
E|--------------------------------------------------------|


    A chord diagramA majorA               A chord diagramF#sus4F#7sus4
e|-----4-4-4-------------------
B|-0_2-5-5-5-2-0---------------|
G|---------------1-------3---3-|
D|---2-------------4-------4---|
A|---0-------------------------|
E|-----------------------------|
 |
e|---------------------0---0---|
B|-------2-2-2-0---------0---0-|
G|---2-----------1---3---------|
D|---2-------------4-----------|
A|---0-------------------------|
E|-----------------------------|


   A chord diagramE MajorE
e|-0----------------------------------------0--------------------------------------------|
B|-0----------------------------------------0--------------------------------------------|
G|---------------------------------------------------------------------------------------|
D|-2----------------------------------------2--------------------------------------------|
A|-2----------------------------------------2--------------------------------------------|
E|-0----------------------------------------0--------------------------------------------|
 |
e|---------------------------------------------------------------------------------------|
B|---x-15\12-12\--x-12\10-10\--x-7-7/9-9-9----x-15\12-12\--x-12\10-10\--x-7-7-7/9-9-9-9--|
G|---x------------x------------x--------------x------------x------------x----------------|
D|---x-12\-9--9\--x--9\-7--7\--x-4-4/6-6-6----x-12\-9--9\--x--9\-7--7\--x-4-4-4/6-6-6-6--|
A|---------------------------------------------------------------------------------------|
E|-0----------------------------------------0--------------------------------------------|


 Bridge:
   A chord diagramBB          A chord diagramA majorA             F#GmF#m A chord diagramE5E5            A chord diagramBB
  Gtr I
e|----7-------------------------------------0-----|
B|----9_7-----5-5-5-7_5---0-2/3-2---------0---0-7-|
G|-8------8---6---------6---2/3-2-0-------------8-|
D|-9--------9-7-------------4/5-4-0-----2-------9-|
A|----------------------------------2-------------|
E|----------------------------------0-------------|


                   A chord diagramA majorA             F#GmF#m A chord diagramE MajorE
e|---------------0------------------------------0-----|
B|-(7)-7-7_9_7---0-5---5-7_5---0-2/3-2-------0----0---|
G|-(8)---------8---6-6-------6---2/3-2-0--------------|
D|-(9)-------------7-7-----------4/5-4-0------------0-|
A|---------------------------------------2------------|
E|---------------------------------------0------------|


   A chord diagramBB            A chord diagramA majorA             F#GmF#m A chord diagramE MajorE
e|----7_9_7---0-------------0-----------------------0-----|
B|------------0-----5-7_5---0---------------0-----0---0---|
G|-8--------6---6-6-------6---2/3-2-0-----------1---------|
D|-9------------7-7-----------4/5-4-0---------2---------0-|
A|------------------------------------2-------------------|
E|------------------------------------0------------------|


   A chord diagramBB             A chord diagramA majorA            F#GmF#Gm  A chord diagramE MajorE
e|---------------------------------------------------|
B|-7-7-7_9_7--------7_5---0-2/3-2/3------------------|
G|-8---8-----8---6------6---2/3-2/3-0--------0-3-0-3-|
D|-9---9-------9-7----------4/5-4/5-0------2---------|
A|------------------------------------2--2-----------|
E|------------------------------------0--------------|


Outro/Guitar Solo:
        A chord diagramBB                   A chord diagramA majorA
  Gtr II (delay on)
     1          1      1      1         1
e|-16---------16-----16-----16--------16----------|
B|-19^--------19^----19^----19^-------19^---------|
G|------------------------------------------------|
D|------------------------------------------------|
A|------------------------------------------------|
E|------------------------------------------------|
 | Gtr I
e|--------7---------------------------------------|
B|--------9_7----------------5----5-5--7____5---0-|
G|--8----------8-------------6----------------6---|
D|--9-----------------9------7--------------------|
A|------------------------------------------------|
E|------------------------------------------------|


  F#Gm     A chord diagramF# minorF#m    A chord diagramE MajorE                    A chord diagramBB
       1½           ~~~~~~~
e|---17-----------------------------------|
B|---19^------(19)-17----------16_17------|
G|-----------------------------------18---|
D|----------------------------------------|
A|----------------------------------------|
E|----------------------------------------|
 |
e|------------------------------0---------|
B|-2-/3-----2----------------0--------0-7-|
G|-2-/3-----2---0-----------------------8-|
D|-4-/5-----4---0----------2------------9-|
A|------------------2--(2)----------------|
E|------------------0--(0)----------------|


                                            A chord diagramA majorA
           1                            1
e|---------------------------------------------------------------------------|
B|---------------------------------------------------------------------------|
G|-16--(16)^----(16)-------------16-(16)^----(16)-(16)^----(16)---13_14_13---|
D|---------------------18___16-----------------------------------------------|
A|---------------------------------------------------------------------------|
E|---------------------------------------------------------------------------|
 |
e|------------------------------------0--------------------------------------|
B|-(7)---------------7--7_9____7------0--------5----------------5--7_-5----0-|
G|-(8)----------------------------8------------6-------------6-----------6---|
D|-(9)-----------------------------------------7-------------7---------------|
A|---------------------------------------------------------------------------|
E|---------------------------------------------------------------------------|


  F#Gm          A chord diagramF# minorF#m                        A chord diagramE MajorE
       1        1             1              ~~~~~~~
e|---------------------------------------------------------------------|
B|---------------------------------------------------------------------|
G|---------------------------------------------------------------------|
D|---16^----(16)^---------(16)^--------(16)-14------(14)\--------------|
A|---------------------------------------------------------------------|
E|----------------------------------------------------------(7)\-------|
 |
e|---------------------------------------------------------------0-----|
B|-2-/3------------2--------------------------------------0--------0---|
G|-2-/3------------2-------------0-------------------------------------|
D|-4-/5------------4-------------0-----------------------------------0-|
A|-------------------------------------------2-------------------------|
E|-------------------------------------------0-------------------------|


   A chord diagramBB                  A chord diagramA majorA
                       ~~
e|--------------------------------------|
B|--------------------------------------|
G|--------------------------------------|
D|-----14___16___14----------16_14_16---|
A|-14-----------------16----------------|
E|--------------------------------------|
 |
e|------7_9____7----0-----------------0-|
B|------------------0------5--7__5----0-|
G|--8-------------6----6-6----------6---|
D|--9------------------7-7--------------|
A|--------------------------------------|
E|--------------------------------------|


   F#GmF#m         A chord diagramE MajorE
                    ~~~~~~~
e|--------------------------------------------|
B|--------------------------------------------|
G|-----------16_18-16-------------------------|
D|-----16_14----------------------------------|
A|-------------------------------x-x-(14)\----|
E|--------------------------------------------|
 |
e|---------------------------------0----------|
B|-------------------------0-----0-----0------|
G|-2/3--2-----0----------------1--------------|
D|-4/5--4-----0--------------2-------------0--|
A|------------------2-------------------------|
E|------------------0-------------------------|


   A chord diagramBB                      A chord diagramA majorA
                      ~~
e|---------------------------------------|
B|---------------------------------------|
G|---------------------------------------|
D|---------14___16---14-------16_18-16---|
A|-14-14------------------16-------------|
E|---------------------------------------|
 |
e|---------------------------------------|
B|--7----7--7_9____7-----------7__5----0-|
G|--8-------8---------8----6---------6---|
D|--9-------9-----------9--7-------------|
A|---------------------------------------|
E|---------------------------------------|


   A chord diagramG minorGm                  A chord diagramE MajorE
     1
e|----------------------------------------|
B|----------------17----------------------|
G|-18^----(18)_16-16----------------------|
D|----------------------------------------|
A|----------------------------------------|
E|--------------------------0----------x--|
 |
e|----------------------------------------|
B|--3-------3-----------------------------|
G|--3-------3-----------------------------|
D|--5-------5------2----------------------|
A|-----------------2----------------------|
E|-----------------0----------------------|


************************************

| /    Slide up
| x    Dead note
| \    Slide down
| ~    Vibrato
| ^    Bend
|(n)   Release bend, ghost note, held from previous staff
| _    Hammer-on/pull-off
|v5/^5 Rake

************************************

Other versions of Vernie

VernieChords

Almost there ...

Sign in to get your own page with links to favourite songs and more. You are just one click away...

Login with Facebook Login with Google