Guitar Tabs Explorer
Blind Melon guitar tabs for Change (mandolin)

Change (mandolin) tab


5 / 5 [1 vote]


Apollonia93Author: Apollonia93

Change (mandolin) tab by Blind Melon

Mandolin tab, tuning GDAE. Chords and licks all included.

Guitar tabs with lyrics

Print
  • Tuning: Standard tuning
The mandolin tab for Blind Melon`s Change, from their debut
album: https://www.youtube.com/watch?v=Yn1WbBaWTdc

The song features an acoustic and an electric guitar, a harmonica and a mandolin. The
latter does not kick in until the first chorus, but the first verse and all the rhythm
sections would be played the same on the mandolin as they were on guitar and therefore
I transposed them.


0:48 CHORUS 1 LEAD

e|----------------------------------------|---------------------------------|
A|-0-0-0-0-0--2-2-2-2--5-5-5-5-5--4-4-4-4-|---------------------------------|
D|----------------------------------------|-4-4-4-4-4--5-5-5-5-5--7-7-7-7-7-|
G|----------------------------------------|---------------------------------|
   tr         tr       tr         tr        tr         tr         tr

e|----------------------------------------|----------------------|
A|-0-0-0-0-0--2-2-2-2--5-5-5-5-5--4-4-4-4-|----------------------|
D|----------------------------------------|-5-5-5-5-5--7-7-7-7-7-|
G|----------------------------------------|----------------------|
   tr         tr       tr         tr        tr         tr


RHYTHM (transposed from guitar)

   D chord diagramDD    Dsus4 chord diagramDsus4Dsus4 D chord diagramDD   G chord diagramGG    Gadd2 chord diagramGadd2Gadd2 G chord diagramGG   A chord diagramAA       Asus4 chord diagramAsus4Asus4 A chord diagramAA Asus2 chord diagramAsus2Asus2 A chord diagramAA           G chord diagramGG         D chord diagramDD
e|-2-2-2--3p2-2-|-3-3-3--5p3-3-|-5-5-5-5---5---5---5---5-|       |-3-3-3-3-|-2-|
A|-0-0-0--0-0-0-|-2-2-2--2-2-2-|-4-4-4-4---5---4---2---4-|       |-2-2-2-2-|-0-|
D|-0-0-0--0-0-0-|-0-0-0--0-0-0-|-2-2-2-2---2---2---2---2-| x3    |-0-0-0-0-|-0-|
G|-2-2-2--2-2-2-|-0-0-0--0-0-0-|-2-2-2-2---2---2---2---2-|       |-0-0-0-0-|-2-|


VERSE 2 (1:10 starts on guitar and plays this thrice, mandolin kicks in at 1:22 and plays it twice)

   A chord diagramAA       Asus4 chord diagramAsus4Asus4 A chord diagramAA Asus2 chord diagramAsus2Asus2 A chord diagramAA   G chord diagramGG       Gadd2 chord diagramGadd2Gadd2 G chord diagramGG  G6 chord diagramG6G6 G chord diagramGG   D chord diagramDD       Dsus4 chord diagramDsus4Dsus4  D chord diagramDD          A chord diagramAA       Asus4 chord diagramAsus4Asus4 A chord diagramAA Asus2 chord diagramAsus2Asus2 A chord diagramAA
e|-5-5-5-5--5----5--5----5-|-3-3-3-3--5----3--0--3-|-2-2-2-2--3-3-3p2--2---2-|-5-5-5-5--5----5--5----5-|
A|-4-4-4-4--5----4--2----4-|-2-2-2-2--2----2--2--2-|-0-0-0-0--0-0-0-0--0---0-|-4-4-4-4--5----4--2----4-|
D|-2-2-2-2--2----2--2----2-|-0-0-0-0--0----0--0--0-|-0-0-0-0--0-0-0-0--0---0-|-2-2-2-2--2----2--2----2-|x2
G|-2-2-2-2--2----2--2----2-|-0-0-0-0--0----0--0--0-|-2-2-2-2--2-2-2-2--2---2-|-2-2-2-2--2----2--2----2-|


VERSE CONTINUED 1:46

   D chord diagramDD    Dsus4 chord diagramDsus4Dsus4 D chord diagramDD   G chord diagramGG    Gadd2 chord diagramGadd2Gadd2 G chord diagramGG   A chord diagramAA                 G chord diagramGG   D chord diagramDD   A chord diagramAA
e|-2-2-2--3p2-2-|-3-3-3--5p3-3-|-5-5-5-5-5-|     |-3-|-2-|-5--------5-|
A|-0-0-0--0-0-0-|-2-2-2--2-2-2-|-4-4-4-4-4-|     |-2-|-0-|-4-----4----|
D|-0-0-0--0-0-0-|-0-0-0--0-0-0-|-2-2-2-2-2-| x3  |-0-|-0-|-2--2-------|
G|-2-2-2--2-2-2-|-0-0-0--0-0-0-|-2-2-2-2-2-|     |-0-|-2-|-2----------|


GUITAR SOLO RHYTHM 2:10

   A chord diagramAA       Asus4 chord diagramAsus4Asus4 A chord diagramAA Asus2 chord diagramAsus2Asus2 A chord diagramAA   G chord diagramGG       Gadd2 chord diagramGadd2Gadd2 G chord diagramGG  G6 chord diagramG6G6 G chord diagramGG   D chord diagramDD       Dsus4 chord diagramDsus4Dsus4  D chord diagramDD          A chord diagramAA       Asus4 chord diagramAsus4Asus4 A chord diagramAA Asus2 chord diagramAsus2Asus2 A chord diagramAA
e|-5-5-5-5--5----5--5----5-|-3-3-3-3--5----3--0--3-|-2-2-2-2--3-3-3p2--2---2-|-5-5-5-5--5----5--5----5-|
A|-4-4-4-4--5----4--2----4-|-2-2-2-2--2----2--2--2-|-0-0-0-0--0-0-0-0--0---0-|-4-4-4-4--5----4--2----4-|
D|-2-2-2-2--2----2--2----2-|-0-0-0-0--0----0--0--0-|-0-0-0-0--0-0-0-0--0---0-|-2-2-2-2--2----2--2----2-|x2
G|-2-2-2-2--2----2--2----2-|-0-0-0-0--0----0--0--0-|-2-2-2-2--2-2-2-2--2---2-|-2-2-2-2--2----2--2----2-|


   D chord diagramDD    Dsus4 chord diagramDsus4Dsus4 D chord diagramDD   G chord diagramGG    Gadd2 chord diagramGadd2Gadd2 G chord diagramGG   A chord diagramAA                   G chord diagramGG   D chord diagramDD   A chord diagramAA              G chord diagramGG  D chord diagramDD  Dsus4 chord diagramDsus4Dsus4
e|-2-2-2--3p2-2-|-3-3-3--5p3-3-|-5-5-5-5-5-|       |-3-|-2-|-5--------5---|-3--2--3p2-------3--0-|-----5-|
A|-0-0-0--0-0-0-|-2-2-2--2-2-2-|-4-4-4-4-4-|       |-2-|-0-|-4-----4----4-|-2--0--0-0-----2------|---4---|
D|-0-0-0--0-0-0-|-0-0-0--0-0-0-|-2-2-2-2-2-| x3    |-0-|-0-|-2--2---------|-0--0--0-0---0--------|-2-----|
G|-2-2-2--2-2-2-|-0-0-0--0-0-0-|-2-2-2-2-2-|       |-0-|-2-|-2------------|-0--2--2-2------------|-------|


REPEAT CHORUS 2:56 x1


3:21 LEAD OUTRO

e|------------------|---------------------------|----------|
A|------------------|-0--2--4-4/7--5-7-5--4-5-4-|-0h2----0-|
D|-5h7-5---5--5h7-7-|---------------------------|----------|
G|------------------|---------------------------|----------|



Tab legend

tr  tremolo (rapid altered up and downpicking of the note)
p   pull off
h   hammer on
/   slide up

Other versions of Change (mandolin)

ChangeChords

Comment this song and these guitar tabs

Do you have corrections, comments on the guitar tabs, thoughts about the song or a message to the author? Write them below.